Tree - Truth Chords & Tabs

 

Truth Chords & Tabs

Tree Chords & Tabs

Version: 1 Type: Tab 0 ratings
1 star 2 stars 3 stars 4 stars 5 stars
comments

Truth Tab

   
#----------------------------------PLEASE NOTE--------------------------------#
#This file is the author's own work and represents their interpretation of the#
#song. You may only use this file for private study, scholarship, or research.#
#-----------------------------------------------------------------------------#

Date: Sat, 16 May 1998 10:00:23 -0400
From: James Needre 
Subject: t/tree/truth.tab

Truth
Tree
Off Downsizing The American Dream
By James Needre (rneed@ma.ultranet.com)
http://www.geocities.com/SunsetStrip/Palladium/6662

Tuning is a whole step down. (D,G,C,F,a,D)
p.m.=palm muting
p=pull off
/=slide


Riff a
[ Tab from: http://www.guitartabs.cc/tabs/t/tree/truth_tab.html ]
C--11-11-11-11-11-11-11-11-11-11-11-11-11-11-11-11-11--9-9-9/12-12-12-12-12--
G---9--9--9--9--9--9--9--9--9--9--9--9--9--9--9--9--9--7-7-7/10-10-10-10-10--
D----------------------------------------------------------------------------



Riff B

G--5-2--2-2--4-2-4-2-4--
D--3-0--0-0--2-0-2-0-2--
        p.m.


Riff C

C--9-9-9-9-9-9-9-9-9-9-9-9-9-9-9-9-9-9---------------
G--7-7-7-7-7-7-7-7-7-7-7-7-7-7-7-7-7-7--9-9-9--5--2--
D---------------------------------------7-7-7--3--0--


C--9-9-9-9-9-9-9-9-9-9-9-9-9-9-9-9-9-9------------
G--7-7-7-7-7-7-7-7-7-7-7-7-7-7-7-7-7-7--9-9-9--5--
D---------------------------------------7-7-7--3--


Riff D

G--5-4-4-4--5-4-5-4--5p4--5-4--
D--3-2-2-2--3-2-3-2--3p2--3-2--


Fill 1

G--5-2-2--
D--3-0-0--


Fill 2

G--7-5-4--
D--5-3-2--


End

G--5-2-4--
D--3-0-2--


Order
Riff a    x4
Riff B    x8
Riff C    x1
Riff D    x4
Riff a    x2
Riff B    x4
Riff C    x2
Riff D    x4
Fill 1    x1
Riff D    x5
Fill 2    x1
Riff D    x4
End       x1
Comments