Tree - Same Old Song Remains The Same Chords & Tabs

 

Same Old Song Remains The Same Chords & Tabs

Tree Chords & Tabs

Version: 1 Type: Tab 0 ratings
1 star 2 stars 3 stars 4 stars 5 stars
comments

Same Old Song Remains The Same Tab

   
#----------------------------------PLEASE NOTE--------------------------------#
#This file is the author's own work and represents their interpretation of the#
#song. You may only use this file for private study, scholarship, or research.#
#-----------------------------------------------------------------------------#

Date: Sat, 16 May 1998 11:51:43 -0400
From: James Needre 
Subject: t/tree/same_old_song_remains_the_same.tab

Same Old Song Remains The Same
Tree
Off Downsizing the American Dream
By James Needre (rneed@ma.ultranet.com)
http://www.geocities.com/SunsetStrip/Palladium/6662/

Tuning is a whole step down. (D,G,C,F,a,D)
/=slide
h=hammer-on
p=pull-off


Intro
[ Tab from: http://www.guitartabs.cc/tabs/t/tree/same_old_song_remains_the_same_tab.html ]
G---------------------------------------
D--3-3-3-3-3-3-3-3-3-3-3---15-15-15-15--
All Harmonics!!!


Riff a

G------------------------10/--
D--3-3-3-3-3-3-3-3-3-3-3------


Fill 1

G-------------------------
D--3-3-3-3-3-3-3-3-3-3-3--


Riff B

G--2--2-2--5-5-2--5-2--
D--0--0-0--3-3-0--3-0--


Fill 2

G--10/--
D-------


Riff C

C--12-11-11/12/11--9-7--6/7/6-4-2---------
G--10--9--9/10/9---7-5--4/5/4-2-0--5-4-2--
D----------------------------------3-2-0--


Fill 3

G--2--
D--0--


Riff D

C--7--------------------------
G--5--2--5--2-----------------
D-----0--3--0--5h6--5p3--3p0--


Order
Intro     x1
Fill 2    x1
Riff a    x7
Fill 1    x1
Riff B    x4
Riff a    x3
Fill 1    x1
Riff B    x8
Riff C    x2
Fill 2    x1
Riff a    x3
Fill 1    x1
Riff B    x8
Fill 3    x1
Riff D    x15
Comments