Tree - Paper Chords & Tabs

 

Paper Chords & Tabs

Tree Chords & Tabs

Version: 1 Type: Tab 0 ratings
1 star 2 stars 3 stars 4 stars 5 stars
comments

Paper Tab

   
#----------------------------------PLEASE NOTE--------------------------------#
#This file is the author's own work and represents their interpretation of the#
#song. You may only use this file for private study, scholarship, or research.#
#-----------------------------------------------------------------------------#

Date: Sat, 16 May 1998 14:30:16 -0400
From: James Needre 
Subject: t/tree/paper.tab

Paper
Tree
Off Downsizing the American Dream
By James Needre (rneed@ma.ultranet.com)
http://www.geocities.com/SunsetStrip/Palladium/6662/

Tuning is a whole step down. (D,G,C,F,a,D)
p.m.=palm muting
/=slide
p=pull-off


Riff a

C--7-2-2--5-2-2--4-2-2--
G--5-0-0--3-0-0--2-0-0--
D-----------------------
    p.m.    p.m.   p.m.


Fill 1

C--4/5/4-2---4/5/4/3--
G--2/3/2-0---2/3/2-0--
D---------------------


Riff B

C-------9----10-10--
G--2-2--7--2--8--8--
D--0-0-----0--------
  p.m.    p.m.


Fill 2

G--------------------
D--6-6-6-7-7-7--3-3--

[ Tab from: http://www.guitartabs.cc/tabs/t/tree/paper_tab.html ]
Fill 3

C--------------10-10--
G---------------8--8--
D--6-6-6-7-7-7--------


Riff C

G--5p2-2--5p7-2-2--6-6-6-6-6-6--
D--3p0-0--3p5-0-0--4-4-4-4-4-4--


Riff D

G--2--2--5-7-5---2--8-7-5--
D--0--0--3-5-3---0--6-5-3--


Riff E

Same as Riff D only palm muted.


Riff F

Same as Riff C only faster.


Fill 4

G--5p2-2--5p2-2-2--6--
D--3p0-0--3p0-0-0--4--


Riff G

G--8-7-5---8-7-2--
D--6-5-3---6-5-0--


Fill 6

Same as Fill 4 only faster.


Fill 5

G--2--
D--0--


Order
Riff a    x3
Fill 1    x1
Riff a    x3
Fill 1    x1
Riff B    x3
Fill 2    x2
Riff B    x3
Fill 3    x1
Riff B    x3
Fill 2    x1
Riff B    x3
Fill 1    x1
Riff C    x3
Fill 4    x1
Riff B    x3
Fill 2    x1
Riff B    x3
Fill 1    x1
Riff C    x3
Fill 4    x1
Riff D    x4
Riff E    x8
Fill 5    x1
Riff G    x2
Riff F    x3
Fill 6    x1
Riff F    x7
Fill 6    x1
Comments