Tree - Homefront Chords & Tabs

 

Homefront Chords & Tabs

Tree Chords & Tabs

Version: 1 Type: Tab 0 ratings
1 star 2 stars 3 stars 4 stars 5 stars
comments

Homefront Tab

   
#----------------------------------PLEASE NOTE--------------------------------#
#This file is the author's own work and represents their interpretation of the#
#song. You may only use this file for private study, scholarship, or research.#
#-----------------------------------------------------------------------------#

Date: Thu, 21 May 1998 11:57:00 -0400
From: James Needre 
Subject: t/tree/homefront.tab

Homefront
Tree
By James Needre (rneed@ma.ultranet.com)
and Rodrigo Flores (coc199666@aol.com)
http://www.geocities.com/SunsetStrip/Palladium/6662

Tuning is a whole step down. (D,G,C,F,a,D)
T=tremelo picking
b=bend


Riff a

C--9--------------------------
G--7-8-7--2-5-7--2-5-7-5-4-2--
D----6-5--0-3-5--0-3-5-3-2-0--


Riff b

C--9------
G--7-8-7--
D----6-5--


Riff C
[ Tab from: http://www.guitartabs.cc/tabs/t/tree/homefront_tab.html ]
C--9-------------9-----------------
G--7-8-7-5-7-5---7-8-7--7-7-5-4-2--
D----6-5-3-5-3-----6-5--5-5-3-2-0--


Riff D

G--2-2-3--2-3-4--3-2--5-4-3--
D--0-0-1--0-1-2--1-0--3-2-1--


Solo

D--------------------------------------
A--------------------------------------
F---15T---15T--------15-------15-------
C---------17Tb----17b------17b----17b--
G--------------------------------------
D--------------------------------------


Riff E

C--9------------------
G--7--8-7-5--7-5-2-5--
D-----6-5-3--5-3-0-3--


End

C--9-----------
G--7--8-7-5-2--
D-----6-5-3-0--


Order
Riff a    x4
Riff b    x4
Riff a    x4
Riff b    x4
Riff a    x4
Riff C    x2
Riff D    x4
Solo (Play Riff D under it)
Riff D    x4
Riff E    x4
Riff a    x8
Riff E    x3
Riff b    x1
End       x1
Comments