Tree - Highway Chords & Tabs

 

Highway Chords & Tabs

Tree Chords & Tabs

Version: 1 Type: Tab 0 ratings
1 star 2 stars 3 stars 4 stars 5 stars
comments

Highway Tab

   
#----------------------------------PLEASE NOTE--------------------------------#
#This file is the author's own work and represents their interpretation of the#
#song. You may only use this file for private study, scholarship, or research.#
#-----------------------------------------------------------------------------#

Date: Sat, 16 May 1998 17:20:19 -0400
From: James Needre 
Subject: t/tree/highway.tab

Highway
Tree
Off Downsizing The American Dream
By James Needre (rneed@ma.ultranet.com)
http://www.geocities.com/SunsetStrip/Palladium/6662/

Tuning is a whole step down. (D,G,C,F,a,D)
/=slide
b=bend


Riff a

G--5-5-5/4-2--4--
D--3-3-3/2-0--2--


Riff b

G--5-5-5/4-2--4----5-5-5/4-2-4-4--2-4-5-4-2--
D--3-3-3/2-0--2----3-3-3/2-0-2-2--0-2-3-2-0--


Riff C
[ Tab from: http://www.guitartabs.cc/tabs/t/tree/highway_tab.html ]
G--5-5-5/4-2-4-4--2-4-5-4-2--
D--3-3-3/2-0-2-2--0-2-3-2-0--


Riff D

G--2--/7--5---------------------
D--0---------6---3--4--5--4--3--


Riff E

G--2-2--5b---2-2--5-5--
D--0-0--3b---0-0--3-3--


Fill 1

G--2-5-5--2-5--2-5-2--
D--0-3-3--0-3--0-3-0--


Fill 2

G--5-5-5/4-2--4----5-5-5/4-2-4-4--2-4--
D--3-3-3/2-0--2----3-3-3/2-0-2-2--0-2--


Fill 3

G--2--
D--0--


Fill 4

G--2-3--
D--0-1--


Riff F

G--2--3--2--
D--0--1--0--


Order
Riff a    x2
Riff b    x2
Riff C    x4
Riff b    x2
Riff C    x4
Riff b    x2
Riff C    x4
Riff D    x3
Fill 1    x1
Riff b    x1
Fill 2    x1
Riff C    x4
Riff b    x2
Riff D    x4
Fill 3    x2
Riff F    x7
Fill 4    x1
Fill 3    x1
Riff F    x7
Fill 4    x1
Fill 3    x1
Riff F    x8
Comments