Tree - Deadline Chords & Tabs

 

Deadline Chords & Tabs

Tree Chords & Tabs

Version: 1 Type: Tab 0 ratings
1 star 2 stars 3 stars 4 stars 5 stars
comments

Deadline Tab

   
#----------------------------------PLEASE NOTE--------------------------------#
#This file is the author's own work and represents their interpretation of the#
#song. You may only use this file for private study, scholarship, or research.#
#-----------------------------------------------------------------------------#

Date: Sat, 16 May 1998 15:49:16 -0400
From: James Needre 
Subject: t/tree/deadline.tab

Deadline
Tree
Off Downsizing the American Dream
By James Needre (rneed@ma.ultranet.com)
http://ww.geocities.com/SunsetStrip/Palladium/6662/

Tuning is a whole step down. (D,G,C,F,a,D)
p.m.=palm muting


Riff a

C--7-7-7-6-6-6-7-7-7-7-7-----------
G--5-5-5-5-5-5-5-5-5-5-5--3-3-3-3--
D-------------------------1-1-1-1--


Riff B

C--7-7-7-6-6-6-7-7-7-7-7--10-10-10-10--
G--5-5-5-5-5-5-5-5-5-5-5---8--8--8--8--
D--------------------------------------


Riff C
[ Tab from: http://www.guitartabs.cc/tabs/t/tree/deadline_tab.html ]
C---------7-7-7-----------7-7-7--------7-7--
G--7-7-7--5-5-5---5-5-5---5-5-5---5-5--5-5--
D--5-5-5----------3-3-3-----------3-3-------


Riff D

G----7---7---7-8-7--
D--0---0---0--------
Open notes palm muted.


Fill 1

G--2-2-2-2-2-2-2-3-2-2--
D--0-0-0-0-0-0-0-1-0-0--
        p.m.


Riff E

C-------7-9---9-9-9-12-11--7-9-7-9--9-9-9--12-11--
G--7-9--5-7---7-7-7-10--9--5-7-5-7--7-7-7--10--9--
D--5-7--------------------------------------------


Fill 2

C-------7-9--
G--7-9--5-7--
D--5-7-------


Riff F

Same as Riff D only faster.


Riff G

Same as Riff F only palm muted


Fill 3

G----7----7--
D--0----0----
All open notes palm muted.


Order
Riff a    x4
Riff B    x3
Riff a    x3
Riff C    x2
Riff B    x3
Riff a    x3
Riff C    x2
Riff D    x3
Fill 1    x1
Riff E    x5
Fill 2    x1
Riff F    x8
Riff G    x8
Riff D    x5
Fill 3    x1
Riff E    x15
Comments