Treble Charger - Mercury Smile Chords & Tabs

 

Mercury Smile Chords & Tabs

Treble Charger Chords & Tabs

Version: 2 Type: Tab 0 ratings
1 star 2 stars 3 stars 4 stars 5 stars
comments

Mercury Smile Tab

Treble Charger-"Mercury Smile"
from the album "Maybe It's Me", 1997.
words and music by Greig Nori, Rosie Martin, Bill Priddle,
		   Morris Palter.
tabbed by: Jd Dude

Intro-Fig. 1
Gtr. 1
|-------------------------------------------------------------|
|---6---6---6---6---6---6---6---6---6---6---6---6---6---6---6-|
|-4---4---4---4---4---4---4---4---4---4---4---4---4---4---4---|
|-------------------------------------------------------------|
|-------------------------------------------------------------|
|-------------------------------------------------------------|

|-------------------------------------------------------------|
|---6---6---6---6---6---6---6---6---6---6---6---6---6---6---6-|
|-4---4---4---4---4---4---4---4---4---4---4---4---4---4---4---|
|-------------------------------------------------------------|
|-------------------------------------------------------------|
|-------------------------------------------------------------|

|-------------------------------------------------------------|
|---6---6---6---6---6---6---6---6---6---6---------------------|
|-4---4---4---4---4---4---4---4---4---4-----------------------|
|-------------------------------------------------------------|
|-------------------------------------------------------------|
|-------------------------------------------------------------|

Gtr. 2 w/ dist.
|--------------------------------------12---------------------|
|-10--9-------10--9-------10--9-----------10------------------|
|--9--9--------9--9--------9--9--------------9----------------|
|-------------------------------------------------------------|
|-------------------------------------------------------------|
|-------------------------------------------------------------|


1st Verse-Fig. 2
Gtr. 1
|-------------------------------------------------------------|
|---6---6---6---6-------------------4---4---4---4---4---4---4-|
|-4---4---4---4-----2---2---2---2-2---2---2---2---2---2---2---|
|-------------------------------------------------------------|
|-----------------0---0---0---0-------------------------------|
|-------------------------------------------------------------|

|-------------------------------------------------------------|
|---4---6---6---6---6-------------------4---4---4---4---4---4-|
|-2---4---4---4---4-----2---2---2---2-2---2---2---2---2---2---|
|-------------------------------------------------------------|
|---------------------0---0---0---0---------------------------|
|-------------------------------------------------------------|

|-------------------------------------------------------------|
|---4---4---6---6---6---6-------------------4---4---4---4---4-|
|-2---2---4---4---4---4-----2---2---2---2-2---2---2---2---2---|
|-------------------------------------------------------------|
|-------------------------0---0---0---0-----------------------|
|-------------------------------------------------------------|

|-------------------------------------------------------------|
|---4---4---4---6---6---6---6---------------------------------|
|-2---2---2---4---4---4---4-----2---2---2---2-----------------|
|---------------------------------------------2-2-2-2-2-2-2-2-|
|-----------------------------0---0---0---0---2-2-2-2-2-2-2-2-|
|---------------------------------------------0-0-0-0-0-0-0-0-|

|-------------------------------------------------------------|
|-------------------------------------------------------------|
|-------------------------------------------------------------|
|-2-2-2-2-2-2-2-2---------------------------------------------|
|-2-2-2-2-2-2-2-2---------------------------------------------|
|-0-0-0-0-0-0-0-0---------------------------------------------|

Gtr. 2
let ring throughout
|--4-----------5-----------------4-----------------4----------|
|--------5-----------5-----------------5-----------------5----|
|--------------------------4-----------------4----------------|
|-------------------------------------------------------------|
|-------------------------------------------------------------|
|-------------------------------------------------------------|

|-5-----------------4-----------------4-----------5-----------|
|-------5-----------------5-----------------5-----------5-----|
|-------------4-----------------4-----------------------------|
|-------------------------------------------------------------|
|-------------------------------------------------------------|
|-------------------------------------------------------------|


Pre-chorus-Fig. 3
Gtr. 1 w/ dist.
Play twice
|-------------------------------------------------------------|
|-------------------------------------------------------------|
|-6-6-6-6-7-7-7-7-2-2-2-2-4/6--4------------------------------|
|-6-6-6-6-7-7-7-7-2-2-2-2-4/6--4------------------------------|
|-4-4-4-4-5-5-5-5-0-0-0-0-2/4--2------------------------------|
|-------------------------------------------------------------|

Gtr. 2 w/ dist.
Play twice
|-------------------------------------------------------------|
|--9------10--------12---12---12------------------------------|
|-11^13---12^14---9----9----9----9----------------------------|
|-------------------------------------------------------------|
|-------------------------------------------------------------|
|-------------------------------------------------------------|


Chorus-Fig. 3
Gtr. 1 w/ dist
|-------------------------------------------------------------|
|-------------------------------------------------------------|
|-------------------------7-7-7-7-6-6-6-6-7-7-7-7-------------|
|-4-4-4-4-4-4-4-4-7-7-7-7-7-7-7-7-6-6-6-6-7-7-7-7-4-4-4-4-4-4-|
|-4-4-4-4-4-4-4-4-7-7-7-7-5-5-5-5-4-4-4-4-5-5-5-5-4-4-4-4-4-4-|
|-2-2-2-2-2-2-2-2-5-5-5-5-------------------------2-2-2-2-2-2-|

|-------------------------------------------------------------|
|-------------------------------------------------------------|
|-------------7-7-7-7-6-6-6-6-7-7-7-7-------------------------|
|-4-4-7-7-7-7-7-7-7-7-6-6-6-6-7-7-7-7-4-4-4-4-4-4-4-4-7-7-7-7-|
|-4-4-7-7-7-7-5-5-5-5-4-4-4-4-5-5-5-5-4-4-4-4-4-4-4-4-7-7-7-7-|
|-2-2-5-5-5-5-------------------------2-2-2-2-2-2-2-2-5-5-5-5-|

|-------------------------------------------------------------|
|-------------------------------------------------------------|
|-7-7-7-7-6----6----6----7----7----7----6----6----6----7----7-|
|-7-7-7-7-6----6----6----7----7----7----6----6----6----7----7-|
|-5-5-5-5-4----4----4----5----5----5----4----4----4----5----5-|
|-------------------------------------------------------------|

|-------------------------------------------------------------|
|-------------------------------------------------------------|
|---7----3--3--3----------------------------------------------|
|---7----4--4--4----------------------------------------------|
|---5----4--4--4----------------------------------------------|
|--------2--2--2----------------------------------------------|

Gtr. 2 w/ dist.
|-------------------------------------------------------------|
|-10---10---10---10---10---10---10---10---10------------------|
|----9----9----9----9----9----9----9----9----9----------------|
|-------------------------------------------------------------|
|-------------------------------------------------------------|
|-------------------------------------------------------------|
****repeat above three times, then play below:

|-------------------------------------------------------------|
|-9-------9---10---10---9-------9---10-------10---12---12---12|
|-----9----------9----------9------------9------9----9----9---|
|-------------------------------------------------------------|
|-------------------------------------------------------------|
|-------------------------------------------------------------|

[ Tab from: http://www.guitartabs.cc/tabs/t/treble_charger/mercury_smile_tab_ver_2.html ]
2nd Verse-Fig. 4
Gtr. 1 w/ dist.
Play four times
|-------------------------------------------------------------|
|-------------------------------------------------------------|
|-------------------------------------------------------------|
|-4-4-4-4-4-4-4-4-7-7-7-7-7-7-7-7-2-2-2-2-2-2-2-2-2-2-2-2-2-2-|
|-4-4-4-4-4-4-4-4-7-7-7-7-7-7-7-7-2-2-2-2-2-2-2-2-2-2-2-2-2-2-|
|-2-2-2-2-2-2-2-2-5-5-5-5-5-5-5-5-0-0-0-0-0-0-0-0-0-0-0-0-0-0-|

|-------------------------------------------------------------|
|-------------------------------------------------------------|
|-------------------------------------------------------------|
|-2-2---------------------------------------------------------|
|-2-2---------------------------------------------------------|
|-0-0---------------------------------------------------------|


Interlude-Fig. 5
Gtr. 1 w/ overdrive & slight tremolo
Play five times
|-------------------------------------------------------------|
|-------------------------------------------------------------|
|-------------------------------------------------------------|
|-4----------7----------2-------------------------------------|
|-4----------7----------2-------------------------------------|
|-2----------5----------0-------------------------------------|

Gtr. 2 w/ dist.
|-------------------------------------------------------------|
|------6-----6--6p4---------4---------6-----6--6p4------------|
|-4--------------------2---------4----------------------------|
|-------------------------------------------------------------|
|-------------------------------------------------------------|
|-------------------------------------------------------------|
   
|-16----^17--^16----------------------------------------------|
|-------------------------------------------------------------|
|-------------------------------------------------------------|
|-------------------------------------------------------------|
|-------------------------------------------------------------|
|-------------------------------------------------------------|


Outro-Fig. 6
|-------------------------------------------------------------|
|-------------------------------------------------------------|
|-------------------------------------------------------------|
|-4-4-4-4-4-4-4-4-7-7-7-7-7-7-7-7-2-2-2-2-2-2-2-2-2-2-2-2-2-2-|
|-4-4-4-4-4-4-4-4-7-7-7-7-7-7-7-7-2-2-2-2-2-2-2-2-2-2-2-2-2-2-|
|-2-2-2-2-2-2-2-2-5-5-5-5-5-5-5-5-0-0-0-0-0-0-0-0-0-0-0-0-0-0-|

|-------------------------------------------------------------|
|-------------------------------------------------------------|
|-------------------------------------------------------------|
|-2-2-4-4-4-4-4-4-4-4-7-7-7-7-7-7-7-7-2-2-2-2-2-2-2-2-2-2-2-2-|
|-2-2-4-4-4-4-4-4-4-4-7-7-7-7-7-7-7-7-2-2-2-2-2-2-2-2-2-2-2-2-|
|-0-0-2-2-2-2-2-2-2-2-5-5-5-5-5-5-5-5-0-0-0-0-0-0-0-0-0-0-0-0-|

|-------------------------------------------------------------|
|-------------------------------------------------------------|
|-------------------------------------------------------------|
|-2-2-2-2-4-4-4-4-4-4-4-4-7-7-7-7-7-7-7-7-2-2-2-2-2-2-2-2-2-2-|
|-2-2-2-2-4-4-4-4-4-4-4-4-7-7-7-7-7-7-7-7-2-2-2-2-2-2-2-2-2-2-|
|-0-0-0-0-2-2-2-2-2-2-2-2-5-5-5-5-5-5-5-5-0-0-0-0-0-0-0-0-0-0-|

|-------------------------------------------------------------|
|-------------------------------------------------------------|
|-------------------------------------------------------------|
|-2-2-2-2-2-2-4-4-4-4-4-4-4-4-7-7-7-7-7-7-7-7-2-2-2-2-2-2-2-2-|
|-2-2-2-2-2-2-4-4-4-4-4-4-4-4-7-7-7-7-7-7-7-7-2-2-2-2-2-2-2-2-|
|-0-0-0-0-0-0-2-2-2-2-2-2-2-2-5-5-5-5-5-5-5-5-0-0-0-0-0-0-0-0-|

|-------------------------------------------------------------|
|-------------------------------------------------------------|
|-----------------------------------------7-7-7-7-6-6-6-6-7-7-|
|-2-2-2-2-2-2-2-2-4-4-4-4-4-4-4-4-7-7-7-7-7-7-7-7-6-6-6-6-7-7-|
|-2-2-2-2-2-2-2-2-4-4-4-4-4-4-4-4-7-7-7-7-5-5-5-5-4-4-4-4-5-5-|
|-0-0-0-0-0-0-0-0-2-2-2-2-2-2-2-2-5-5-5-5---------------------|

|-------------------------------------------------------------|
|-------------------------------------------------------------|
|-7-7-2-2-2-2-4/6--4-6-6-6-6-7-7-7-7-2-2-2-2-4/6--4-6-6-6-6-7-|
|-7-7-2-2-2-2-4/6--4-6-6-6-6-7-7-7-7-2-2-2-2-4/6--4-6-6-6-6-7-|
|-5-5-0-0-0-0-2/4--2-4-4-4-4-5-5-5-5-0-0-0-0-2/4--2-4-4-4-4-5-|
|-------------------------------------------------------------|

|-------------------------------------------------------------|
|-------------------------------------------------------------|
|-7-7-7-2-2-2-2-4/6--4-6-6-6-6-7-7-7-7-2-2-2-2-4/6------------|
|-7-7-7-2-2-2-2-4/6--4-6-6-6-6-7-7-7-7-2-2-2-2-4/6--4--4--4---|
|-5-5-5-0-0-0-0-2/4--2-4-4-4-4-5-5-5-5-0-0-0-0-2/4--4--4--4---|
|---------------------------------------------------2--2--2---|

Gtr. 2 w/ dist.
|-------------------------------------------------------------|
|-10--10----12^14--12------12--12----12^14--12------12--12----|
|-------------------------------------------------------------|
|-------------------------------------------------------------|
|-------------------------------------------------------------|
|-------------------------------------------------------------|

|-------------------------------------------------------------|
|--12----12------12--12----12^14^12--10----10--10----12^14--12|
|-------------------------------------------------------------|
|-------------------------------------------------------------|
|-------------------------------------------------------------|
|-------------------------------------------------------------|

|-------------------------------------------------------------|
|------12--12----12^14--12------12--12------12----12------12--|
|-------------------------------------------------------------|
|-------------------------------------------------------------|
|-------------------------------------------------------------|
|-------------------------------------------------------------|

|-----------------------------12------10------9---------------|
|-12------12^14^12--10----10------10------10-----10--12----12-|
|-------------------------------------------------------------|
|-------------------------------------------------------------|
|-------------------------------------------------------------|
|-------------------------------------------------------------|

|----------------------------------------------17p16h17p16----|
|-12----12---12^14---12^14---12^14^12---10-----------------17-|
|-------------------------------------------------------------|
|-------------------------------------------------------------|
|-------------------------------------------------------------|
|-------------------------------------------------------------|

|-------------------------------------------------------------|
|-14--10--12-----12--12---12^14----12^14------12^14^12--10----|
|-------------------------------------------------------------|
|-------------------------------------------------------------|
|-------------------------------------------------------------|
|-------------------------------------------------------------|

|-------------------------------------------------------------|
|-10-10-10\9--9-9--9-9-9-9-9----9------10-------12---12---12--|
|-------------------------------11^13--12^14--9----9----9----9|
|-------------------------------------------------------------|
|-------------------------------------------------------------|

|-------------------------------------------------------------|
|-12---9-----10-------12---12---12---12--9------10-------12---|
|-----11^13--12^14--9----9----9----9-----11^13--12^14--9----9-|
|-------------------------------------------------------------|
|-------------------------------------------------------------|
|-------------------------------------------------------------|

|-------------------------------------------------------------|
|------12---12--9------10-------12---12---12---12-------------|
|----9----9-----11^13--12^14--9----9----9----9----------------|
|--------------------------------------------------4--4--4----|
|--------------------------------------------------4--4--4----|
|--------------------------------------------------2--2--2----|====
Comments