Treble Charger - Mercury Smile Chords & Tabs

 

Mercury Smile Chords & Tabs

Treble Charger Chords & Tabs

Version: 1 Type: Tab 0 ratings
1 star 2 stars 3 stars 4 stars 5 stars
comments

Mercury Smile Tab

   
-----MERCURY SMILE-----
-----TREBLE CHARGER-----
-----MAYBE IT'S ME-----

Tabbed by..... tab-man@mindless.com
Tuning..... Standard  E B G D A E

Intro
E-2---2---2---2----   repeat
B---2---2---2---2--
G------------------
D------------------
A------------------
E------------------  have guitar two do this once in a while...

E---5--4-----5--4-----5--4-----5--4-
B---5--5-----5--5-----5--5-----5--5-
G-----------------------------------
D-----------------------------------
A-----------------------------------
E-----------------------------------

Verse (I don't feel like like writing out the lyrics right now...)
F#m A E
[ Tab from: http://www.guitartabs.cc/tabs/t/treble_charger/mercury_smile_tab.html ]
Little thing before the 2nd verse
  C#5  D5  A5
E-------------------------------
B-9----10-----12---12---12---12-
G-11b--12b--9----9----9----9----
D-------------------------------
A-------------------------------
E-------------------------------

Chorus
F#5                       A5             D5       C#5  D5
I love your mercury smile, it keeps me outta line.

Post chorus part
C#5           D5            C#5               D5            F#5
Everything is beautiful, I don't know why it has to be this way...

Solo (it has these notes in them, I don't want to figure it out)
E----------------
B----------------
G-------13-14-16-  it's a scale
D-14-16----------  or something
A----------------
E----------------

Bridge
is the same as the verse except power chords or just the single note.

Whoop de doo.
Comments