Treble Charger - Hundred Million Chords & Tabs

 

Hundred Million Chords & Tabs

Treble Charger Chords & Tabs

Version: 1 Type: Tab 0 ratings
1 star 2 stars 3 stars 4 stars 5 stars
comments

Hundred Million Tab

#----------------------------------PLEASE NOTE--------------------------------#
#This file is the author's own work and represents their interpretation of the#
#song. You may only use this file for private study, scholarship, or research.#
#-----------------------------------------------------------------------------#

Song:  Hundred Million
Band:  TREBLE CHARGER
Album: Detozx (I think. It's not out yet)



This is the awesome new, but by the time you read this, really old, 
song by treble charger. WHO ARE CANADIAN!!!

Anyways, this seems right. Get the timing from the CD.
I didn't include some things, but if you can't figure them out
you shouldn't be playing the guitar. ;)

!!!!!!!ENJOY!!!!!!!
Aaron  (aaron8972@hotmail.com)

Intro
                                                              
E------------------------------------------------------
B------------------------------------------------------
G------------------------------------------------------
D------------------------------------------------------    4x
A------------------------------------------------------
D--0--0--12--11--0--8--9--0--8--9--12/14--0--0--14/16--
                                                                        

Verse
                                                                        
E---------------------------------------
B---------------------------------------
G-------------------------------10--10--
D--0-0--0--0--4--0--0--4--0--0--10--10--
A--0-0--0--0--4--0--0--4--0--0--8---8---
D--0-0--0--0--4--0--0--4--0--0--8---8---
  PM...........................


E--------------------------------------------------                                                               
[ Tab from: http://www.guitartabs.cc/tabs/t/treble_charger/hundred_million_tab.html ]
B--------------------------------------------------
G--------------------------------------------------
D---5--5--5--5--5--5--5--5--7--7--7--7--7--7--7--7--     4x
A---5--5--5--5--5--5--5--5--7--7--7--7--7--7--7--7--
D---5--5--5--5--5--5--5--5--7--7--7--7--7--7--7--7--

Pre-Chorus
                                                                  
E---------------------------------------------------------
B---------------------------------------------------------
G---------------------------------------------------------
D--12--0--7--8--9--0--2--0--2--0-12--0--7--8--9--0--10--10    2x
A--12--0--7--8--9--0--2--0--2--0-12--0--7--8--9--0--10--10
D--12--0--7--8--9--0--2--0--2--0-12--0--7--8--9--0--10--10
                                                                        
Chorus
                                                                  
E-----------------------------------------
B-----------------------------------------
G-----------------------------------------
D--0--0--0--10--9--8--8--8--0--5--5--5--3-       4x
A--0--0--0--10--9--8--8--8--0--5--5--5--3-
D--0--0--0--10--9--8--8--8--0--5--5--5--3-
                                                                        

Interlude                                                                    
E-----------------------------------------------------------
B-----------------------------------------------------------
G-----------------------------------------------------------  continues
D--0--0--0--0--0--0--0--0--4--4--4--4--4--4--4--4--5--5-----  on next
A--0--0--0--0--0--0--0--0--4--4--4--4--4--4--4--4--5--5-----  line
D--0--0--0--0--0--0--0--0--4--4--4--4--4--4--4--4--5--5-----
                                                                   
E-----------------------------------------------------------------------
B-----------------------------------------------------------------------
G---------------------------------10-10---------------------------------
D---5--5--5--5--5--5--5--5--5--5--10-10---------------------------------
A---5--5--5--5--5--5--5--5--5--5--8--8----------------------------------
D---5--5--5--5--5--5--5--5--5--5--8--8----------------------------------
                                                                        

Comments