Treble Charger - Hundred Million Chords & Tabs

 

Hundred Million Chords & Tabs

Treble Charger Chords & Tabs

Version: 4 Type: Bass Tab 0 ratings
1 star 2 stars 3 stars 4 stars 5 stars
comments

Hundred Million Bass Tab

   
Hundred Million is a great song i love treble charger
sorry if its wrong, i tried.

Intro (bass doesn't play on the first twoo times start on third)X2
G-------------------------------------
D-----------------------------------5-
A-----6-5-----------------6-8-----6---
E-0-0-----0-7-8-0-7-8-0-0-----0-0-----

VerseX4
G-----------------------------
D-----------------------------
A-------------------------2-2-
E-0-0-0-0-3-3-3-3-0-0-0-0-----
[ Tab from: http://www.guitartabs.cc/tabs/t/treble_charger/hundred_million_btab_ver_4.html ]
Pre ChorusX2
G-----------------------------------------------------------------
D-----------------------------------------------------------------
A-----------------------------------------------------------------
E-4-4-4-4-4-4-4-4-3-3-3-3-3-3-3-3-4-4-4-4-4-4-4-4-6-6-6-6-6-6-6-6-

ChorusX4
G-------------------------------------------
D-------------------------------------------
A-----------------------7-----------------7-
E-0-6-6-7-7-8-8-2-0-2-0---6-6-7-7-8-8-4-4---

Intro x2
Verse x4
Prechorus x2
Chorusx4
Bridge 1 x4
G-------------------
D-------------------
A---5-3-2-----------
E-0-------4-4-4-4-0-

Bridge 2 x5
G----------------------------------------------------------------
D----------------------------------------------------------------
A----------------------------------------------------------------
E-0-0-0-0-0-0-0-0-3-3-3-3-3-3-3-3-4-4-4-4-4-4-4-4-4-4-4-4-4-4-4-4

Chorus x(6,7,or 8)
intro x2
Comments