Treble Charger - Hundred Million Chords & Tabs

 

Hundred Million Chords & Tabs

Treble Charger Chords & Tabs

Version: 1 Type: Bass Tab 0 ratings
1 star 2 stars 3 stars 4 stars 5 stars
comments

Hundred Million Bass Tab

   
Band: Treble Charger
Song: Hundred Million
Album: Detox
Tabbed By: Andrew Boulos


I don't think the intro has a bass line, and if it does I can't pick it out.
E-mail me if you can. andrew_b@roadrunner.nf.net



Intro -


Pre Verse "After Chorus"
					Repeat 2 Times
E|-00----0----0------------------------------------------------
A|----65---3-----66--------------------------------------------
D|--------------------55---------------------------------------
G|-------------------------------------------------------------

Verse

E|-000-444-333-33-000-333-222-33-000-333-222-33-000-333-222-33-
A|-------------------------------------------------------------
D|-------------------------------------------------------------
G|-------------------------------------------------------------

Pre Chorus
[ Tab from: http://www.guitartabs.cc/tabs/t/treble_charger/hundred_million_btab.html ]
E|-33333333--11111111--33333333--44444444----------------------
A|-------------------------------------------------------------
D|-------------------------------------------------------------
G|-------------------------------------------------------------
                                  Play Fast
E|-33333333--11111111--33333333--[4/1-4/1-4]-------------------
A|-------------------------------------------------------------
D|-------------------------------------------------------------
G|-------------------------------------------------------------

Chorus

E|-----------------3-h4-3-h4-----------------------------------
A|-6--6/--1-2-3--3-----------6--6/--1-2-3--3-3-----6-----------
D|---------------------------------------------6-6-------------
G|-------------------------------------------------------------

Riff A					
					Repeat 4 Times
E|-R---0000-----8-0-4-h5-4-h5----------------------------------
A|-E--------6-5------------------------------------------------
D|-S-----------------------------------------------------------
G|-T-----------------------------------------------------------

Riff B		
					Repeat 4 Times
				(5th time stop at the 4's)
E|--00000000--44444444--5555555555555555-----------------------
A|-------------------------------------------------------------
D|-------------------------------------------------------------
G|-------------------------------------------------------------

-Song Order-

{Intro}
{Pre Verse}
{Verse}
{Pre Chorus}
{Chorus}
{Pre Verse}
{Verse}
{Chorus}
{Riff-A-}
{Riff-B-}
{Chorus}
{Pre Verse}

Comments