Treble Charger - Dont Believe It All Chords & Tabs

 

Dont Believe It All Chords & Tabs

Treble Charger Chords & Tabs

Version: 2 Type: Tab 0 ratings
1 star 2 stars 3 stars 4 stars 5 stars
comments

Dont Believe It All Tab

Alright, rock on, a Treble Charger fan! This is the main solo for Don't
Believe It All, the riffs in the background at the end vary from this
(at least the latter parts are different) so yeah, enjoy! Oh, and the
numbers below it are the fingers you should use to simplify it. It's the
fingering I use anywho.

--12--------------------------------------------------11--14---
------12------------------12--12--14--12------12--12-----------
----------13--13--13--14------------------14-------------------
---------------------------------------------------------------
---------------------------------------------------------------
---------------------------------------------------------------
  1   1    2   2   2   3   1   1   3   1   3   2   2   1   4


-----11--12------11--12---------------------------------------- x 2
-12----------12----------12\-----------------------------------
---------------------------------------------------------------
---------------------------------------------------------------
---------------------------------------------------------------
---------------------------------------------------------------
  2   1   2   2   1   2   1 \

[ Tab from: http://www.guitartabs.cc/tabs/t/treble_charger/dont_believe_it_all_tab_ver_2.html ]
---------------------------------------------------------------
---------9---------9--9--10--9---------------------------------
--9--11-----9--11---------------11--9--8--8--8--9--9--9--11--11--
---------------------------------------------------------------
---------------------------------------------------------------
---------------------------------------------------------------
  1   3  1  1   3  1  1   2  1   3  1  1  1  1 /1  1  1   3   3


---------------------------------------------------------------
------9--9--9----------------9--10--12--9--10--12--9--10--12---
--11-----------11--9--11--9------------------------------------
---------------------------------------------------------------
---------------------------------------------------------------
---------------------------------------------------------------
   3  1  1  1   3  1   3  1  1   2  4   1   2   4  1   2   4


---------------------------------------------------------------
--10--9--------------------------------9--9--9-----------------
---------8--8--8--9--9--9--11--11--11-----------11--9--11--9---
---------------------------------------------------------------
---------------------------------------------------------------
---------------------------------------------------------------
   2  1  1  1  1/ 1  1  1   3   3   3  1  1  1   3  1   3  1


Alright, that's about it really. Pretty gosh darned simple tab if you ask me.
Try to jazz it up a bit. The CD version is kinda lame, so I like throwing in
slides, full bends and lots of vibrito to pump up the energy, 'specially the
last note (9 on the g-string (E note)) Give it lots of vib then slide down
cos there's a long pause before the rest of the song kicks in. Shout at me
if you like it, check out my OLP "solo" too. Later!

Skidzz
(tigheracicot@hotmail.com)
Comments