Treble Charger - Cant Wake Up Chords & Tabs

 

Cant Wake Up Chords & Tabs

Treble Charger Chords & Tabs

Version: 2 Type: Tab 0 ratings
1 star 2 stars 3 stars 4 stars 5 stars
comments

Cant Wake Up Tab

   
hey ppl, this is the rest of Can't wake up.
I let my teacher listen to the song, & he got the whole thin in about half & hour.
The Solo & the bridge (even though its the same riff in between the chorus & bridge)
aren't there 'cos he didn't get enough time to write it all down for me.
Here it is

Power chord Key:
   D      A      B      G      F#     F       E      C
E|---| E|---| E|---| E|---| E|---| E|----| E|---| E|----|
B|---| B|---| B|---| B|---| B|---| B|----| B|---| B|----|
G|---| G|---| G|---| G|---| G|---| G|----| G|---| G|----|
D|-7-| D|---| D|-4-| D|---| D|---| D|-10-| D|---| D|----|
A|-5-| A|-7-| A|-2-| A|-5-| A|-4-| A|--8-| A|-2-| A|-10-|
E|---| E|-5-| E|---| E|-3-| E|-2-| E|----| E|-0-| E|--8-|

Intro:
(Meant on bass)(you can play it on guitar to)
E|------------------|
B|------------------|
G|------------------|
D|---7-777---4--554-| (For bass)Repeat into the verse
A|-55-5----22-22----|
E|------------------|

Verse 1:
(Still intro riff)
Whats so wrong with me now, 
am I different somehow, 
don't feel like I'm quite the same,

E|---|
B|---|
G|-7-|
D|---|  (keep playing that 'til "throw a drink"
A|-5-|
E|---|
Got to thinking again,
& I know I can't win,
So I won't even play that game 

D       A           B
Throw a drink in my face,

       G        D
If you have any taste,

     A        B        G
Come around & erase my mind,

(same for "Kick me now")


[ Tab from: http://www.guitartabs.cc/tabs/t/treble_charger/cant_wake_up_tab_ver_2.html ]
E E F# G    (Harmonics)
              E|-----|
              B|-----|
              G|---5-|
              D|--5--|
              A|-5---|
              E|-----|

           Now that I lost my clothes,
(same for "I could use")

Chorus:

 Riff 1
E|---------|
B|---------|
G|---------|
D|-5-4-2---|
A|------3--|
E|-------3-|

Riff 2
E|---------|         
B|---------|
G|---------|
D|---------|
A|-5-4-5-4-| E E G A  (Repeat x2)
E|---------|

E|----------------------|
B|------5-7b-7b--8-7-5--|
G|-4-4-7--------------7-|
D|----------------------|
A|----------------------|
E|----------------------|

D           F
I live in a daze,

  C                   G  Riff 1            
& I can't change 'cos I can't wake up

D                  F
Don't know what to say,

C                           G Riff 1        Riff 2
It's something strange 'cos I can't make up 

Verse 2

D          A       B                G        D
Somethings missing today, It's been taken away,

          A        B        G
Won't let anything stay the same

(same for the rest of the verse)

Chorus

(Instead of Riff 2)

E|------------------------------5----------------------|         
B|-8b--6--8b-8b-6-8-6----8-6-6-8--8-8-6-8----8-6-8-6---|
G|-------------------7--7----------------7--7----------|
D|-----------------------------------------------------|
A|-----------------------------------------------------| 
E|-----------------------------------------------------|

(For the Bridge, you kinda repeat parts of that, so that it goes with the lyrics)

Chorus x2
(Ends on Riff 2)

by Winno winnorulz@hotmail.com www.modpics.iwarp.com

If there are any questions, just email me at winnorulz@hotmail.com
Comments