Treble Charger - Cant Wake Up Chords & Tabs

 

Cant Wake Up Chords & Tabs

Treble Charger Chords & Tabs

Version: 1 Type: Bass Tab

Cant Wake Up Bass Tab

Intro                          x10
G --------------------------------||
D -----7---7-7-7/4-----4---5-5-5--||
A -5-5---5---------2-2---2-------4||
E --------------------------------||

Pre Chorus      x2
G ----------------||
D ----------------||
A ----------------||
E -0-0-2-3*-------||

Chorus                                          x2
G ------------------------------------------------||
D ------------------------------------------------||
A -5-5-5-5-5-5-------------3-3-3-3-3-3------------||
E -------------1-1-1-1-1-1-------------3-3-3-3-3-3||

After Chorus           x2
G -----------------------|------------------------||
D -----------------------|------------------------||
A -54-54-----------------|-2-2---0--0-000---------||
E -------0-0--3-3--5-5-5-|-----3------------------||
[ Tab from: http://www.guitartabs.cc/tabs/t/treble_charger/cant_wake_up_btab.html ]
Verse                                           x4
G ------------------------------------------------||
D ------------------------------------------------||
A -5-5-5-5-0-0-0-0-2-2-2-2------------------------||
E -------------------------3-3-3-3----------------||

Pre Chorus
Chorus

Bridge                                          x4
G ------------------------------------------------||
D ------------------------------------------------||
A -5-5-5-5----------------------------------------||
E ---------1-1-1-1-6-6-6-6-5-4-3-4----------------||

Solo                                            x2
G ------------------------------------------------||
D ------------------------------------------------||
A -5555555----------03333333----------------------||
E ---------01111111----------01111111-------------||

Chorus x2

Outro                  x3
G -----------------------|------------------------||
D -----------------------|------------------------||
A -54-54-----------------|-2-2---0-00---5*--------||
E -------0-0--3-3--5-5-5-|-----3------3-----------||