Treble Charger - Brand New Low Chords & Tabs

 

Brand New Low Chords & Tabs

Treble Charger Chords & Tabs

Version: 4 Type: Tab 0 ratings
1 star 2 stars 3 stars 4 stars 5 stars
comments

Brand New Low Tab

   
Treble Charger.
Tabbed by Brand New Low.
  
SONG: Brand New Low
ARTIST: Treble Charger
ALBUM: Wide Awake Bored

Tabbed by Adam MacPherson

INTRO/MAIN RIFF (repeated all through the song)

E|-------------------------------------------------
B|-------------------------------------------------
G|-----1---------------------------------------------
D|---2-----1-4----4-4-----6--4------------------------------
A|-2-----2--------4-4----------------------------------
E|-------------0--2-2---2-----------------------------

RIFF 1 (guitar 2 distorted)
E|----|
B|-9b-|
G|----|
D|----|
A|----|
E|----|

RIFF 2 
E|-------------------------------------------------------|
B|-5-5-5-4b-----------------------------------------5~~--|
G|----------4-3b------------------------------4p3h4------|
D|---------------4-----2-4-2-1b---------4p2h4------------|
A|-----------------2h4----------2h4p2h4------------------|
E|-------------------------------------------------------|

PRE-CHORUS(mild distortion)

   A                E                 B5              F#5
E|---------------------------------------------------------------------
B|---------------------------------------------------------------------
G|-2-2-2-2-2-2-2-2--1-1-1-1-1-1-1-1--4-4-4-4-4-4-4-4-------------------
D|-2-2-2-2-2-2-2-2--2-2-2-2-2-2-2-2--4-4-4-4-4-4-4-4--4-4-4-4-4-4-4-4--
A|-0-0-0-0-0-0-0-0--2-2-2-2-2-2-2-2--2-2-2-2-2-2-2-2--4-4-4-4-4-4-4-4--
E|------------------0-0-0-0-0-0-0-0-------------------2-2-2-2-2-2-2-2--

   A                E                B5
E|---------------------------------------------------|
B|---------------------------------------------------|
G|-2-2-2-2-2-2-2-2--1-1-1-1-1-1-1-1--4-4-4-4-4-4-4-4-|
D|-2-2-2-2-2-2-2-2--2-2-2-2-2-2-2-2--4-4-4-4-4-4-4-4-|
A|-0-0-0-0-0-0-0-0--2-2-2-2-2-2-2-2--2-2-2-2-2-2-2-2-|
E|------------------0-0-0-0-0-0-0-0------------------|
[ Tab from: http://www.guitartabs.cc/tabs/t/treble_charger/brand_new_low_tab_ver_4.html ]
CHORUS ("And I wanna know...") (heavy distortion - both guitars)
   F#5      D5       A5       B5       F#5      A5       D5       E5
E|-------------------------------------------------------------------------
B|-------------------------------------------------------------------------
G|----------7-7-7-7-----------4-4-4-4--------------------7-7-7-7--9-9-9-9--
D|-4-4-4-4--7-7-7-7--7-7-7-7--4-4-4-4--4-4-4-4--7-7-7-7--7-7-7-7--9-9-9-9--
A|-4-4-4-4--5-5-5-5--7-7-7-7--2-2-2-2--4-4-4-4--7-7-7-7--5-5-5-5--7-7-7-7--
E|-2-2-2-2-----------5-5-5-5-----------2-2-2-2--5-5-5-5--------------------
  F#5       D5       A5       B5       F#5      A5       D5
E|------------------------------------------------------------------------|
B|------------------------------------------------------------------------|
G|----------7-7-7-7-----------4-4-4-4--------------------7-7-7-7-7-7-7-7--|
D|-4-4-4-4--7-7-7-7--7-7-7-7--4-4-4-4--4-4-4-4--7-7-7-7--7-7-7-7-7-7-7-7--|
A|-4-4-4-4--5-5-5-5--7-7-7-7--2-2-2-2--4-4-4-4--7-7-7-7--5-5-5-5-5-5-5-5--|
E|-2-2-2-2-----------5-5-5-5-----------2-2-2-2--5-5-5-5-------------------|

(Riff 2 is played a bit differently to start off verse 2 along with the main 
riff)

BRIDGE

E|-------|
B|-------|
G|-6b~~--|
D|-------|
A|-------|
E|-------|

("Nothing is what it seems") One guitar palm mutes this...the other picks it
E|-----------------------------|
B|-------3---3----------2---2--|
G|-----4---4--------2-----2----|
D|---4------------0---0--------|
A|-2---------------------------|
E|-----------------------------|

("Without you...")
E|----------------------------------------------------
B|----------------------------------------------------
G|---------9-9-9-9-4-4-4-4-----------9-9-9-9-4-4-4-4--
D|-7-7-7-7-9-9-9-9-4-4-4-4---7-7-7-7-9-9-9-9-4-4-4-4--
A|-7-7-7-7-7-7-7-7-2-2-2-2---7-7-7-7-7-7-7-7-2-2-2-2--
E|-5-5-5-5-------------------5-5-5-5------------------

E|------------------------------------------------------------------|
B|------------------------------------------------------------------|
G|-7-7-7-7-7-7-7-7-7-7-7-7-7-7-7-7-9-9-9-9-9-9-9-9-9-9-9-9-9-9-9-9--|
D|-7-7-7-7-7-7-7-7-7-7-7-7-7-7-7-7-9-9-9-9-9-9-9-9-9-9-9-9-9-9-9-9--|
A|-5-5-5-5-5-5-5-5-5-5-5-5-5-5-5-5-7-7-7-7-7-7-7-7-7-7-7-7-7-7-7-7--|
E|------------------------------------------------------------------|

Guitar 1 plays this while guitar two plays F#5,A5,D5,E5 from the chorus
E|-----------------------------/9-\---/9-\---/9-\---/9-\--|
B|-/10\---/10\---/10\---/10\---/10\---/10\---/10\---/10\--|
G|--------------------------------------------------------|
D|--------------------------------------------------------|
A|--------------------------------------------------------|
E|--------------------------------------------------------|

The rest of the song is from the chorus.

E|--------------|
B|-----------3--|
G|-----------2--|
D|-4-4--7-7--0--|
A|-4-4--7-7-----|
E|-2-2--5-5-----|


 
:: Ultimate Guitar Archive :: 
http://www.ultimate-guitar.com 

Comments