Treble Charger - American Psycho Chords & Tabs

 

American Psycho Chords & Tabs

Treble Charger Chords & Tabs

Version: 3 Type: Tab 1 rating
1 star 2 stars 3 stars 4 stars 5 stars
comments

American Psycho Tab

intro:
|---------------------------|
|---------------------------|
|---2--2--6--7--4--4--7--6--|
|---2--2--6--7--4--4--7--6--|
|---0--0--4--5--2--2--5--4--|
|---------------------------|
[ Tab from: http://www.guitartabs.cc/tabs/t/treble_charger/american_psycho_tab_ver_3.html ]
riff:
|----------------------------------|
|----------------------------------|
|---2-2-2-2-4-4-4-4---------7-7-7-7|
|---2-2-2-2-2-2-2-2-4-4-4-4-7-7-7-7|
|---0-0-0-0---------4-4-4-4-5-5-5-5|
|-------------------2-2-2-2--------|

solo:
|-------------------------------|
|---7~~5--3--2-----------5------|
|---------------6~~4--2---------|
|-------------------------------|
|-------------------------------|
|-------------------------------|
Comments