Treble Charger - American Psycho Chords & Tabs

 

American Psycho Chords & Tabs

Treble Charger Chords & Tabs

Version: 2 Type: Bass Tab 0 ratings
1 star 2 stars 3 stars 4 stars 5 stars
comments

American Psycho Bass Tab

   
This is my first tab so i may be wrong just go ahead and correct it

Intro
G------------------------------------------------
D------------------------------------------------
A-----4-5-5-----5-4-4------4-5-5--5-5-5-5-7-7-7-7
E-5-5-------7-7-------5-5------------------------

Chorus x1
G------------------------------------------------------------------
D------------------------------------------------------------------
A---------------------------------------------------5-5-5-5-5-5-5-5
E-5-5-5-5-5-5-5-5--0-0-0-0-0-0-0-0--2-2-2-2-2-2-2-2----------------

Verse x2
G------------------------------------------------------------------
D------------------------------------------------------------------
A-------------------5-5-5-5-5-5-5-5-----------------5-5-5-5-5-5-5-5
E-5-5-5-5-5-5-5-5-5-----------------2-2-2-2-2-2-2-2----------------
[ Tab from: http://www.guitartabs.cc/tabs/t/treble_charger/american_psycho_btab_ver_2.html ]
Pre-Chorus x2                                    (end on this)
G----------------------------------------------- G--
D----------------------------------------------- D--
A-------------------------------4-4-4-5-5-5-5--- A-7
E-2-2-2-3-3-3-3-5-5-5-5-5-5-5-5----------------- E--

Chorus x2
Intro x1
Verse x2
Pre-chorus x2
Chorus x2
Intro x1

Bridge (what am i supposed to do...)
G------------------------------------------------------------------------------
D------------------------------------------------------------------------------
A-5--------------5-5-5-5-5-5-5-5-----------------------------------------------
E--------5-----------------------5-5-5-5-5-5-5-5-3-3-3-3-3-3-3-3-2-2-2-2-2-2-2-

Bridge Cont.
G--------------------------------
D--------------------------------
A-5-5-5-5-5-5-5-5-5-5-5-5-5-5-5-5
E--------------------------------

Guitar part
Verse x1
Chorus x4
intro x1
Comments