Travis Tritt - Anymore Chords & Tabs

 

Anymore Chords & Tabs

Travis Tritt Chords & Tabs

Version: 1 Type: Tab 0 ratings
1 star 2 stars 3 stars 4 stars 5 stars
comments

Anymore Tab

   
Capo on 4th Fret

Chords used in this song:

   G        D        C        B7   or   B       Em

e--3--   e--2--   e--0--   e--2--    e-----   e--0--|
B--3--   B--3--   B--1--   B--0--    B--4--   B--0--|
G--0--   G--2--   G--0--   G--2--    G--4--   G--0--|
D--0--   D--0--   D--2--   D--1--    D--4--   D--2--|
A--2--   A-----   A--3--   A--2--    A--2--   A--2--|
E--3--   E-----   E-----   E-----    E-----   E--0--|

Intro lick, played over G - C - G - C:

e--3--2-----------0------------3--2------------0----------|
B--3-----3--1--3----1h3--------3-----3--1--3----1h3-------|
G--0--------0---------------0--0--------0---------------0-|
D--0--------2-----------0h2----0--------2-----------0h2---|
A--2--------3------------------2--------3-----------------|
E--3---------------------------3--------------------------|

Verse 1:
Lick A:                          Lick B:

e---------------------------     e-----------|
B------1h3-1--1---1---------     B-----------|
G-------------0h2-0--0---0--     G-----------|
D----2---------------0h2-0--     D-----------|
A--3------------------------     A--0--2--3--|
E---------------------------     E-----------|

        G                    D           C         D
I can't hide the way I feel about you anymore
        G
I can't hold the hurt inside,
         D                      C (Lick A)  D  (Lick B)
keep the pain out of my eyes anymore
C                    D        C                         D
  My tears no longer waiting,   my resitence ain't that strong
C                   D        B7            Em
  My mind keeps recreating a life with you alone
          C           D
  And I'm tired of pretending
C         D          G
  I don't love you anymore.

This part is played between the 1st & 2nd verse, over G - C:

e--3--2------------0-------------|
B--3-----3---1--3----1h3---------|
G--0---------0----------------0--|
D--0---------2------------0h2----|
A--2---------3-------------------|
E--3-----------------------------|

Verse 2:
[ Tab from: http://www.guitartabs.cc/tabs/t/travis_tritt/anymore_tab.html ]
       G                       D
Let me make one last appeal to show you how I feel
        C       D
  About you
              G                            D
Cause there's no one else I swear holds a candle anywhere
          C (Lick A) D (Lick B)
  Next to you
C                         D
  My heart can't take the beating
C                   D
  Not having you to hold
C                     D         B7             Em
  A small voice keeps repeating deep inside my soul
            C            D
  It says I can't keep pretending
C         D           G
  I don't love you anymore

Bridge:

Em                                C
  I've got to take this chance or let it pass by
Em                   D
  If I expect to get on with my life

Solo

B		        F#	     E                  F#
e------------------------|-----------|-------------------|----|
B------------------------|----------4|5p4-----5-4--------|----|
G---------------6b(8)rp4h|6-------6--|----6-4-----6p4h6/8|6---|
D------4-------x---------|-----------|-------------------|----|
A--4/6---6/9--x----------|-----------|-------------------|----|
E------------------------|-----------|-------------------|----|

B					      F#
e---------14----------------------------------|------------|
B--14b(16)--r14-12--14p12h14^--14p12h14-------|------------|
G---------------------------------------13brbr|11----------|
D---------------------------------------------|------------|
A---------------------------------------------|------------|
E---------------------------------------------|------------|

E
e----12-16-14p12-12\9-12p9------|
B--12---------------------------|
G-------------------------------|
D-------------------------------|
A-------------------------------|
E-------------------------------|
                                         F#
e-------------------------------------------------------|
B----12p9--9--------------------------------------------|
G--11----11-11--9---------------------------------------|
D--------------9--11-9-11-9--9\8--8\6--6\4--4^^^^^^^^^--|
A-------------------------------------------------------|
E-------------------------------------------------------|

End chorus:

C                    D        C                         D
  My tears no longer waiting,   my resitence ain't that strong
C                   D        B7            Em
  My mind keeps recreating a life with you alone
          C           D
  And I'm tired of pretending
C         D          G
  I don't love you anymore.

Outro:

e--3--2---------0------------3--2----------0------------3--|
B--3----3--1--3---1h3--------3-----3--1--3---1h3--------3--|
G--0-------0--------------0--0--------0--------------0--0--|
D--0-------2----------0h2----0--------2----------0h2----0--|
A--2-------3-----------------2--------3-----------------2--|
E--3-------------------------3--------------------------3--|
Comments