Travis - The Line Is Fine Chords & Tabs

 

The Line Is Fine Chords & Tabs

Travis Chords & Tabs

Version: 1 Type: Tab 0 ratings
1 star 2 stars 3 stars 4 stars 5 stars
comments

The Line Is Fine Tab

   
Travis - The Line Is Fine
Album: Good Feeling  Track: 03
Standard Tuning; Capo on 2nd fret (chords are relative to capo)
Tabbed by George P : grptertius@yahoo.com

Intro:

e----0--0--------------------|
B----2--2--3--3--2--2--0--0--|
G----2--2--2--2--2--2--2--2--|
D----2--2--2--2--2--2--2--2--|
A----0--0--0--0--0--0--0--0--|
E----------------------------|

Verse:
  
Look at me I'm so disgusting
e--2--2--2--2--2--2--2--2--|
B--3--3--3--3--3--3--3--3--|
G--2--2--2--2--2--2--2--2--|
D--0--0--0--0--0--0--0--0--|
A--0-----------------------|
E--------------------------|


I will never find another
e--2--2--2--2--2--2--2--2--|
B--3--3--3--3--3--3--3--3--|
G--2--2--2--2--2--2--2--2--|
D--0--0--0--0--0--0--0--0--|
A--0-----------------------|
E--------------------------|
 

Quite like you, you make me blue, with the things you do
e--0--0--------------------------------------------|
B--2--2--3--3--2--2--0--0--2--2--0--0--2--2--2--2--|
G--2--2--2--2--2--2--2--2--2--2--2--2--2--2--2--2--|
D--2--2--2--2--2--2--2--2--2--2--2--2--2--2--2--2--|
A--0--0--0--0--0--0--0--0--0--0--0--0--0--0--0--0--|
E--------------------------------------------------|


Look at you you're so familiar
e--2--2--2--2--2--2--2--2--|
B--3--3--3--3--3--3--3--3--|
G--2--2--2--2--2--2--2--2--|
D--0--0--0--0--0--0--0--0--|
A--0-----------------------|
E--------------------------|


We could be so cool together
e--2--2--2--2--2--2--2--2--|
B--3--3--3--3--3--3--3--3--|
G--2--2--2--2--2--2--2--2--|
D--0--0--0--0--0--0--0--0--|
A--0-----------------------|
E--------------------------|


All the time, could all be fine, we're on the line, the line is fine
e--0--0--------------------------------------------|
B--2--2--3--3--2--2--0--0--2--2--0--0--2--2--2--2--|
G--2--2--2--2--2--2--2--2--2--2--2--2--2--2--2--2--|
D--2--2--2--2--2--2--2--2--2--2--2--2--2--2--2--2--|
A--0--0--0--0--0--0--0--0--0--0--0--0--0--0--0--0--|
E--------------------------------------------------|


Chorus:

Open up the window, the line is fine
Standing on the ledge, well I don't look down
Looking at the people, well they all look fine
e--3--3--3--3--0--0--0--0--2--2--2--2--0--0--0--0--|
B--0--0--0--0--2--2--2--2--3--3--3--3--0--0--0--0--|
G--0--0--0--0--2--2--2--2--2--2--2--2--0--0--0--0--|
D--0--0--0--0--2--2--2--2--0--0--0--0--2--2--2--2--|
A--2--2--2--2--0--0--0--0--0--0--0--0--2--2--2--2--|
E--3--3--3--3--------------------------0--0--0--0--|


It's not just life or death...
e--3--3--3--3--0--0--0--0--|
B--0--0--0--0--2--2--2--2--|
G--0--0--0--0--2--2--2--2--|
D--0--0--0--0--2--2--2--2--|
A--2--2--2--2--0--0--0--0--|
E--3--3--3--3--------------|


Verse 2:

Yesterday we talked together
But tonight it's just the weather
Chillin' me
What's the point in silly talking
We could get there quicker walking
Down the line, could all be fine, but we're on the line, the line is fine

*Repeat Chorus*
[ Tab from: http://www.guitartabs.cc/tabs/t/travis/the_line_is_fine_tab.html ]
It's not just life or death...
e--3--3--3--3--0--0--0-----|
B--0--0--0--0--2--2--2--3--|
G--0--0--0--0--2--2--2--3--|
D--0--0--0--0--2--2--2--3--|
A--2--2--2--2--0--0--0--1--|
E--3--3--3--3--------------|


But staring at the faces, standing in a row, thinking of all the places
e--2--2--2--2--2--2--2--2--2--2--2--2--2--2--2--2--2--2--2--2--2--2--2--2--|
B--3--3--3--3--2--2--2--2--3--3--3--3--2--2--2--2--3--3--3--3--2--2--2--2--|
G--4--4--4--4--3--3--3--3--4--4--4--4--3--3--3--3--4--4--4--4--3--3--3--3--|
D--4--4--4--4--4--4--4--4--4--4--4--4--4--4--4--4--4--4--4--4--4--4--4--4--|
A--2--2--2--2--4--4--4--4--2--2--2--2--4--4--4--4--2--2--2--2--4--4--4--4--|
E--2--2--2--2--2--2--2--2--2--2--2--2--2--2--2--2--2--2--2--2--2--2--2--2--|


That they have yet to go, they didn't know
e--2--2--2--2--0--0--0--0--0--0--0--0--0--0--0--0--0--0--0--0--|
B--3--3--3--3--0--0--0--0--0--0--0--0--2--2--2--2--2--2--2--2--|
G--4--4--4--4--0--0--0--0--0--0--0--0--2--2--2--2--2--2--2--2--|
D--4--4--4--4--2--2--2--2--2--2--2--2--2--2--2--2--2--2--2--2--|
A--2--2--2--2--2--2--2--2--2--2--2--2--0--0--0--0--0--0--0--0--|
E--2--2--2--2--0--0--0--0--0--0--0--0--------------------------|


Solo:

 Guitar 1:
 (b = bend up; h = hammer on; / = slide up)
    G     Em         A            D    G          Em    A             D     G
 e------------------------------------------------------------------------------------|
 B------3------3--------3------------3------3---------3------3------------3------3----|
 G------------------------------------------------------------------------------------|
 D--3/4---3b-----0---3b---5b-3h5-3/4---3b-----0---3/4---3b-----5b-3h5-3/4---3b-----0--|
 A------------------------------------------------------------------------------------|
 E------------------------------------------------------------------------------------|
 
    Em     A             D    G          Em    A
 e------------------------------------------------------------------------------|
 B------3------3------------3------3---------3----3----3----3----3--3--3--3--3--|
 G------------------------------------------------------------------------------|
 D--3/4---3b-----5b-3h5-3/4---3b-----0---3/4---5b---5b---5b---5b----5--5--5--5--|
 A------------------------------------------------------------------------------|
 E------------------------------------------------------------------------------|

 *Guitar 2 plays the letter notes above the solo notation (real time)*


*Repeat Chorus*

It's not just life or death, the line is fine
e--3--3--3--3--0--0--0--0--2--2--2--2--0--0--0--0--|
B--0--0--0--0--2--2--2--2--3--3--3--3--0--0--0--0--|
G--0--0--0--0--2--2--2--2--2--2--2--2--0--0--0--0--| x2
D--0--0--0--0--2--2--2--2--0--0--0--0--2--2--2--2--|
A--2--2--2--2--0--0--0--0--0--0--0--0--2--2--2--2--|
E--3--3--3--3--------------------------0--0--0--0--|

End with solo pattern; fade out
Comments