Travis - The Line Is Fine Chords & Tabs

 

The Line Is Fine Chords & Tabs

Travis Chords & Tabs

Version: 2 Type: Bass Tab 0 ratings
1 star 2 stars 3 stars 4 stars 5 stars
comments

The Line Is Fine Bass Tab

Song: "The Line Is Fine" [BASS TAB]
Artist: Travis
Album: Good Feeling
Tabbed By: Kris Heding [RadioheadChick@aol.com]
[More Travis bass tabs can be found at The Groovy Dougie Fan Club http://members.aol.com/groovydougie]
If you want to use this tab on a website, please ask my permission! Thanks!

|-------------------------------------|
|-------------------------------------|
|-------------------------------------|
|--7--7--7--7--7--7--7--7-------------|

(Intro)

|------------------------------------------------------|
|------------------------------------------------------|
|------------------------------------------------------|
|--0---------------------------------------------------|


|-----------------------------------------------|
|-----------------------------------------------|
|-----------------------------------------------|
|--7--7--7--7--7--7--7--7--7--7--7--7--7--7--7--|


|------------------------------------------------------|
|------------------------------------------------------|
|------------------------------------------------------|
|--0---------------------------------------------------|


|-----------------------------------------------|
|-----------------------------------------------|
|-----------------------------------------------|
|--7--7--7--7--7--7--7--7--7--7--7--7--7--7--7--|


|-----------------------------------------------|
|-----------------------------------------------|
|-----------------------------------------------|
|--7--7--7--7--7--7---7-------------------------|


|-----------------------------------------|
|-----------------------------------------|
|-----------------------------------------|
|--5--5--5--2--2--2--0--0--0--5--5--4--4--|


|--------------------------------------------|
|--------------------------------------------|
|--------------------------------------------|
|--2--2--2--7--7--7--0--0--0--0--5--5--4--4--|


|--------------------------------------------|
|--------------------------------------------|
|--------------------------------------------|
|--2--2--2--7--7--7--0--0--0--0--5--5--4--4--|


|--------------------------------------------|
|--------------------------------------------|
|--------------------------------------------|
|--2--2--2--2--7--7--7--7--0-----------------|


|--------------------------------------------|
|--------------------------------------------|
|--------------------------------------------|
|--0--0--0--0--0--0--0--0--0--0--0--0--0--0--|


|--------------------------------------------|
|--------------------------------------------|
|--------------------------------------------|
|--7--7--7--7--7--7--7--7--7--7--7--7--7--7--|


|--------------------------------------------|
|--------------------------------------------|
|--------------------------------------------|
|--0--0--0--0--0--0--0--0--0--0--0--0--0--0--|


|-----------------------------------------------|
|-----------------------------------------------|
|-----------------------------------------------|
|--7--7--7--7--7--7--7--7--7--7--7--7--7--7--7--|

[ Tab from: http://www.guitartabs.cc/tabs/t/travis/the_line_is_fine_btab_ver_2.html ]
|-----------------------------------------------|
|-----------------------------------------------|
|-----------------------------------------------|
|--7--7--7--7--7--7---7-------------------------|


|-----------------------------------------|
|-----------------------------------------|
|-----------------------------------------|
|--5--5--5--2--2--2--0--0--0--5--5--4--4--|


|--------------------------------------------|
|--------------------------------------------|
|--------------------------------------------|
|--2--2--2--7--7--7--0--0--0--0--5--5--4--4--|


|--------------------------------------------|
|--------------------------------------------|
|--------------------------------------------|
|--2--2--2--7--7--7--0--0--0--0--5--5--4--4--|


|--------------------------------------------|
|--------------------------------------------|
|--------------------------------------------|
|--2--2--2--2--7--7--7--7--0-----------------|


|--------------------------------------------------|
|--------------------------------------------------|
|--4--4--4--4--------------4--4--4--4--------------|
|--------------4--4--4--4--------------4--4--4--4--|


|--------------------------------------------------|
|--------------------------------------------------|
|--4--4--4--4--------------------------------------|
|--------------4--4--4--4--0--0--0--0--5--5--5--5--|


|--------------------------|
|--------------------------|
|--------------------------|
|--2--2--2--2--2--2--2--2--|


(Solo)

|-----------------------------------------|
|-----------------------------------------|
|-----------------------------------------|
|--0--0--0--0--0--5--5--4--4--2--2--2--2--|

|--------------------------------------|
|--------------------------------------|
|--------------------------------------|
|--7--7--7--7--0--0--0--0--5--5--4--4--|

|--------------------------------------------|
|--------------------------------------------|
|--------------------------------------------|
|--2--2--2--7--7--7--0--0--0--0--5--5--4--4--|

|--------------------------------------------|
|--------------------------------------------|
|--------------------------------------------|
|--2--2--2--7--7--7--0--0--0--0--5--5--4--4--|

|--------------------------------------------|
|--------------------------------------------|
|--------------------------------------------|
|--2--2--2--2--7--7--7--7--7--7--7--7--7--7--|

|-----------------------------------------|
|-----------------------------------------|
|-----------------------------------------|
|--5--5--5--2--2--2--0--0--0--5--5--4--4--|


|--------------------------------------------|
|--------------------------------------------|
|--------------------------------------------|
|--2--2--2--7--7--7--0--0--0--0--5--5--4--4--|


|--------------------------------------------|
|--------------------------------------------|
|--------------------------------------------|
|--2--2--2--7--7--7--0--0--0--0--5--5--4--4--|


|--------------------------------------------|
|--------------------------------------------|
|--------------------------------------------|
|--2--2--2--7--7--7--0--0--0--0--5--5--4--4--|

(Play over and over until song's end)
Comments