Travis - Sing Chords & Tabs

 

Sing Chords & Tabs

Travis Chords & Tabs

Version: 1 Type: Bass Tab 0 ratings
1 star 2 stars 3 stars 4 stars 5 stars
comments

Sing Bass Tab

Travis
Sing

This sound right to me, but you will have to listen to the song for the right timing

here..........
*= let it ring
Riff 1
|---------------------------
|---------------------------
|----------0-2*-0-2-0-2-2---
|--2-2---2------------------

Riff 2
|---------------------------
|----0-2*-0-2-0-------------
|--2------------2-2---------
|---------------------------

Riff 3
|---------------------------
|----0-2*-0-2-0-------------
|--2------------------------
|----------------2-2--------
Riff 3
|---------------------------
|---------------------------
|----0-2*-0-2-0-------------
|--2------------------------      >
Riff 1  (x1)
Riff 2  (x1)
Riff 3  (x1)
Riff 4  (x1)
--repeat--

Good luck...

===========Travis
The Invisible Band
Sing

These two riffs repeat after one another through out the song Here it is......
[ Tab from: http://www.guitartabs.cc/tabs/t/travis/sing_btab.html ]
*= let it ring
Riff 1
|---------------------------
|---------------------------
|----------0-2*-0-2-0-2-2---
|--2-2---2------------------


Riff 2
|---------------------------
|----------0-2*-0-2-0-------
|--2-2---2------------------
|---------------------2-2---

Thats it!
It sounds right, these r the note, i'll let you figure out the timing...

Good Luck
===========Travis - Sing

Verse:
G------------|------------|------------|-------------|-------------|
D------------|------------|------------|-----02-0----|-------------|
A------------|------------|2-2-(2)-(2)0|-2-4-----4-20|-2-2-(2)-(2)0|
E-2-2-(2)-(2)|-2-2-(2)-(2)|------------|-------------|-------------|

G----------|-----------|-----------
D-----0----|-----------|-----------
A-2-4--4-20|-----------|-----------
E----------|2-2-(2)-(2)|2-2-(2)-(2)

Chorus:
G--------|--------|--------|--------|--------|--------|--------|
D--------|--------|--------|--------|--------|--------|--------|
A-0-0-0-0|--------|-2-2-2-2|-2-2-2-2|-2-2-2-2|-2-2-2-2|-0-0-0-0|
E--------|-0-0-0-0|--------|--------|--------|--------|--------|

Key
In brackets = let note ring out
Comments