Travis - Side Chords & Tabs

 

Side Chords & Tabs

Travis Chords & Tabs

Version: 1 Type: Tab 0 ratings
1 star 2 stars 3 stars 4 stars 5 stars
comments

Side Tab

Main Riff:
E----5-----------------
B-------8--6--8--------
G--7-------------------
D----------------------
A----------------------
E----------------------
[ Tab from: http://www.guitartabs.cc/tabs/t/travis/side_tab.html ]
Solo:
E--10------------------------
B------13--11--10------------
G------------------12--------
D----------------------13----
A----------------------------
E----------------------------
Comments