Travis - Happy Chords & Tabs

 

Happy Chords & Tabs

Travis Chords & Tabs

Version: 1 Type: Tab 0 ratings
1 star 2 stars 3 stars 4 stars 5 stars
comments

Happy Tab

   Happy solo By Travis
-------------------------------------------------------------------------------
Tabbed by: jamiw
Email: jamiejwilson@hotmail.com

Tuning: standard with cappo 3

e|---------------------------------------------------------------------------------------|
B|---------------------------------------------------------------------------------------|
G|------------------4--2--0-----------0--------------------------------------------------|
D|------------------------------4----------2--------part 1----x4-------------------------|
A|---0--0--------------------------------------------------------------------------------|
E|---------------------------------------------------------------------------------------|
[ Tab from: http://www.guitartabs.cc/tabs/t/travis/happy_tab.html ]
e|----------------------------------------------------------------|
B|-----------------2---0---------3---0---2--------part 2------x3--|
G|----------------------2-----------------------------------------|
D|----------------------------------------------------------------|
A|----0--0--------------------------------------------------------|
E|----------------------------------------------------------------|

e|--------------------------------------------------------------------|
B|--------------------2--0----------3--2--0--- 2--3--2--3--2--3--2-0--|
G|---------------------------2-------------2---2--2--2--2--2--2--2-2--|
D|--------------------------------------------------------------------|
A|----0--0------------------------------------------------------------|
E|-----------------------------------------------part3--x1------------|

e|--------------------------------------------------------------|
B|--------------------------------------------------------------|
G|--22224444666677779999-11-11-11-11-9999-----------------------|
D|--00000000000000000000--0--0--0--0-0000---------------part 4--|
A|--------------------------------------------------------------|
E|--------------------------------------------------------------| 
repeat part 1 twice inetead of 4 then part 3 once then play e chord then strum d twice
and immediately play part one once, do that e and d bit 4 timesand thats you.
Comments