Travis - Flowers In The Window Chords & Tabs

 

Flowers In The Window Chords & Tabs

Travis Chords & Tabs

Version: 1 Type: Bass Tab 0 ratings
1 star 2 stars 3 stars 4 stars 5 stars
comments

Flowers In The Window Bass Tab

Song: Flowers in the window
Artist: Travis
Album: The Invisible Band
Tabbed by Adam Bartholomew - ajbart@hotmail.com

Intro (bass enters after 3rd kick) Timing 4/4
     (Bar 1)
G--------|---------|---------|---------------|------------------|
D--------|-10-9-9--|-9\7-5-5-|-5/12-10--9-7--|---10-------12----|
A---8/10-|---------|---------|---------------|-8----8--10----10-|
E--------|---------|---------|---------------|------------------|

Above times 2  (leave out bar 1 the second time)

Verse 1 (*begin by holding last note of chorus, which is first note of verse)

G-------|------|------|------|------|-----|--------|------------|
D-------|------|------|------|------|-----|--------|------------|
A-*10---|--8---|--10--|--12--|--10--|--8--|--8--8--|--10---8/10-|
E-------|------|------|------|------|-----|--------|------------|

Chorus

G|---------|---------|---------------|------------------|
D|-10-9-9--|-9\7-5-5-|-5/12-10--9-7--|---10-------12----|
A|---------|---------|---------------|-8----8--10----10-|  x2
E|---------|---------|---------------|------------------|

Verse 2

G------|-----|-----|-------------|-----|-----|--------|------------|
D------|-----|-----|-------14----|-----|-----|--------|------------|
A--10--|--8--|--10-|-12-15----15-|--10-|--8--|--8--8--|--10---8/10-|
E------|-----|-----|-------------|-----|-----|--------|------------|

Chorus
[ Tab from: http://www.guitartabs.cc/tabs/t/travis/flowers_in_the_window_btab.html ]
G|---------|---------|---------------|------------------|
D|-10-9-9--|-9\7-5-5-|-5/12-10--9-7--|---10-------12----|
A|---------|---------|---------------|-8----8--10----10-|  x4
E|---------|---------|---------------|------------------|

Verse 3 (the seagulls one) bass comes in on the a minor.

G------|-----|-----|-------------|-----|-----|--------|------------|
D------|-----|-----|-------14----|-----|-----|--------|------------|
A------|-----|-----|-12-15----15-|--10-|--8--|--8--8--|--10---8/10-|
E------|-----|-----|-------------|-----|-----|--------|------------|

Last Chorus

G|---------|---------|---------------|------------------|
D|-10-9-9--|-9\7-5-5-|-5/12-10--9-7--|---10-------12----|
A|---------|---------|---------------|-8----8--10----10-|  x3
E|---------|---------|---------------|------------------|
Then

G|---------|---------|---------------|------------------|
D|-10-9-9--|-9\7-5-5-|-5/12-12-12-12-|------------------|
A|---------|---------|---------------|-8---8----8---8---|  
E|---------|---------|---------------|------------------|

G|---------|---------|---------------|------------------|
D|-10-9-9--|-9\7-5-5-|-5/12-10--9-7--|---10-------12----|
A|---------|---------|---------------|-8----8--10----10-|
E|---------|---------|---------------|------------------|

G|---------|---------|------------------|-------|----------|
D|-10-9-9--|-9\7-5-5-|-5/12-12-10-9--7--|-------|-----10---|
A|---------|---------|------------------|-8-----|----------|
E|---------|---------|------------------|-------|----------|

That’s it, enjoy.
                      

Any queries or comments, send a email to ajbart@hotmail.com
Comments