Travis - Dear Diary Chords & Tabs

 

Dear Diary Chords & Tabs

Travis Chords & Tabs

Version: 1 Type: Tab 0 ratings
1 star 2 stars 3 stars 4 stars 5 stars
comments

Dear Diary Tab

Travis-"Dear Diary" (from "The Invisible Band")

Intro.
e---6-------6-----4-------4------  --6-------6--(-4-----------
b-----5---5---------5---6--------  ----5---5-----)5-----------
g-6-----6-------6-----6----------X3-6----6------(-6-----------
d--------------------------------  ---------------------------
a--------------------------------  ---------------------------
E--------------------------------  ---------------------------


e---6-------6-----4-------4-----2-------2------0h2p0---------
b-----5---5---------5---5---------4---4------4-------4-------
g-6-----6-------6-----6-------4-----4------4-----------------
d------------------------------------------------------------
a------------------------------------------------------------
E------------------------------------------------------------
     Dear       Di______________ry 

e---6-------6-----4-------4-----2-------2------0h2p0---------
b-----5---5---------5---5---------4---4------4-------4-------
g-6-----6-------6-----6-------4-----4------4-----------------
d------------------------------------------------------------
a------------------------------------------------------------
E------------------------------------------------------------

     What is     wrong  with    me?

[ Tab from: http://www.guitartabs.cc/tabs/t/travis/dear_diary_tab.html ]
e---6-------6-----4-------4-----6-------6---4-------4--------
b-----5---5---------5---5---------5---5-------5---5---------- 
g-6-----6-------6-----6-------8-----6-----6-----6------------
d------------------------------------------------------------
a------------------------------------------------------------
E------------------------------------------------------------


Cus i'm          fine           between the    lines

e---4-------4---
b-----5---5-----
g-6-----6-------X3
d---------------
a---------------
E---------------





e---6-------6-----4-------4-----6-------6----6-------6-------
b-----5---5---------5---5---------5---5--------7---7--------- 
g-6-----6-------6-----6-------8-----6------8-----8-----------
d------------------------------------------------------------
a------------------------------------------------------------
E------------------------------------------------------------

    Be             not        afraid                     

e---6-------6-----4-------4-----6-------6----6-------6-------
b-----5---5---------5---5---------7---7--------7---7--------- 
g-6-----6-------6-----6-------8-----6------8-----8-----------
d------------------------------------------------------------
a------------------------------------------------------------
E------------------------------------------------------------

    Help is     on the         way

e---6-------6-----4-------4-----6-------6----4-------4-------
b-----5---5---------5---5---------7---7--------5---5--------- 
g-6-----6-------6-----6-------8-----6------6-----6-----------
d------------------------------------------------------------
a------------------------------------------------------------
E------------------------------------------------------------

A  sen______________tence       suspended in air

e--------------
b---7-------7--
g-----8---8----X5
d-8-----8------
a--------------
E--------------

   way over there

ok thats all i can work out for now.

Comments