Travis - All I Want To Do Is Rock Chords & Tabs

 

All I Want To Do Is Rock Chords & Tabs

Travis Chords & Tabs

Version: 1 Type: Bass Tab 0 ratings
1 star 2 stars 3 stars 4 stars 5 stars
comments

All I Want To Do Is Rock Bass Tab

Song: "All I Want To Do Is Rock" [BASS TAB]
Artist: Travis
Album: Good Feeling
Tabbed By: Kris Heding [RadioheadChick@aol.com]
More Travis bass tabs can be found at The Groovy Dougie Fan Club [http://members.aol.com/groovydougie]
If you want to use this tab on a website, please ask my permission! Thanks!

|----------------------------------------------------------------------|
|----------------------------------------------------------------------|
|--5----5----5----5----5----5----5----5--------------------------------|
|------------------------------------------5----5----5----5----5----5--|

|-----------------------------------------------------------------|
|-----------------------------------------------------------------|
|--------------------------------5----5----5----5----5----5----5--|
|--5----5----5----5----5----5-------------------------------------|


|-----------------------------------------------------------------|
|-----------------------------------------------------------------|
|--5---5---5---5---9---9---9---9---9---9--------------------------|
|------------------------------------------3---3---3---3---3---3--|

|----------------------------------------------|
|----------------------------------------------|
|----------------------------------------------|
|--6---6---6---6---6---6---6-------------------|


|--------------------------------------------------|
|--------------------------------------------------|
|--5----5----5----5----5---------------------------|
|---------------------------5----5----5----5----5--|


|------------------------------------------------------------|
|------------------------------------------------------------|
|--5----5----5----5----5----5----5----5----------------------|
|------------------------------------------5----5----5----5--|


|----------------------------------------------------------------------|
|----------------------------------------------------------------------|
|--5----5----5----5----5----5----5----5--------------------------------|
|------------------------------------------5----5----5----5----5----5--|


|-----------------------------------------------------------------|
|-----------------------------------------------------------------|
|--------------------------------5----5----5----5----5----5----5--|
|--5----5----5----5----5----5-------------------------------------|


|-----------------------------------------------------------------|
|-----------------------------------------------------------------|
|--5---5---5---5---9---9---9---9---9---9--------------------------|
|------------------------------------------3---3---3---3---3---3--|

|----------------------------------------------|
|----------------------------------------------|
|----------------------------------------------|
|--6---6---6---6---6---6---6-------------------|


|--------------------------------------------------|
|--------------------------------------------------|
|--5----5----5----5----5---------------------------|
|---------------------------5----5----5----5----5--|

[ Tab from: http://www.guitartabs.cc/tabs/t/travis/all_i_want_to_do_is_rock_btab.html ]
|------------------------------------------------------------|
|------------------------------------------------------------|
|--5----5----5----5----5----5----5----5----------------------|
|------------------------------------------5----5----5----5--|


|----------------------------------------------------------------------|
|----------------------------------------------------------------------|
|--5----5----5----5----5----5----5----5--------------------------------|
|------------------------------------------5----5----5----5----5----5--|

(Solo)

|-----------------------------------------------------------------|
|-----------------------------------------------------------------|
|--------------------------------5----5----5----5----5----5----5--|
|--5----5----5----5----5----5-------------------------------------|

|-----------------------------------------------------------------|
|-----------------------------------------------------------------|
|--5---5---5---5---9---9---9---9---9---9--------------------------|
|------------------------------------------3---3---3---3---3---3--|

|----------------------------------------------|
|----------------------------------------------|
|----------------------------------------------|
|--6---6---6---6---6---6---6-------------------|

|--------------------------------------------------|
|--------------------------------------------------|
|--5----5----5----5----5---------------------------|
|---------------------------5----5----5----5----5--|

|------------------------------------------------------------|
|------------------------------------------------------------|
|--5----5----5----5----5----5----5----5----------------------|
|------------------------------------------5----5----5----5--|

|--------------------------------------------------------------|
|-----------------5-5-7-7-9-9-11-11-12-12----------------------|
|-----5-5-7-7-9-9-------------------------0-0-0-0-0-0-0-0-0-0--|
|--------------------------------------------------------------|

|--------------------------------------------------------------|
|-----------------5-5-7-7-9-9-11-11-12-12-0-0-0-0-0-0-0-0-0-0--|
|-----5-5-7-7-9-9----------------------------------------------|
|--------------------------------------------------------------|


|-----------------------------------------------------------------|
|-----------------------------------------------------------------|
|--5---5---5---5---9---9---9---9---9---9--------------------------|
|------------------------------------------3---3---3---3---3---3--|

|----------------------------------------------|
|----------------------------------------------|
|----------------------------------------------|
|--6---6---6---6---6---6---6-------------------|


|--------------------------------------------------|
|--------------------------------------------------|
|--5----5----5----5----5---------------------------|
|---------------------------5----5----5----5----5--|


|------------------------------------------------------------|
|------------------------------------------------------------|
|--5----5----5----5----5----5----5----5----------------------|
|------------------------------------------5----5----5----5--|

Comments