Travis - 1 Chords & Tabs

 

1 Chords & Tabs

Travis Chords & Tabs

Version: 1 Type: Bass Tab 0 ratings
1 star 2 stars 3 stars 4 stars 5 stars
comments

1 Bass Tab

Song: "1922" [BASS TAB]
Artist: Travis
Album: All I Want To Do Is Rock [Single CD2]
Tabbed By: Kris Heding [RadioheadChick@aol.com]
More Travis bass tabs can be found at The Groovy Dougie Fan Club [http://members.aol.com/groovydougie]
If you want to use this tab on a website, please ask my permission! Thanks!

|-------------------|
|-------------------|
|--2---0---2---2----|
|----2---0---2---2--|

(Intro, repeat 4 times)

|-------------------|
|-------------------|
|--2---0---2---2----|
|----2---0---2---2--|


|------------------------------|
|------------------------------|
|--2---0---5-5--7-9-9-9-9-9-9--|
|----2---0---------------------|


|-------------------------|
|-------------------------|
|--2-2-2-0-0-0-0----------|
|----------------2-2-2-2--|


|-----------------------------------------|
|-----------------------------------------|
|-----------------------------------------|
|--3-3-3-3-3-3-3-3-3-2-3-3-3-3-3-3-3-3-2--|


|---------------------------------------|
|----------------------------4-4-4-4-4--|
|---------------------------------------|
|--3-3-3-3-3-3-3-3-2-2-2-2-2------------|


|-------------------|
|-------------------|
|--2---0---2---2----|
|----2---0---2---2--|


|------------------------------|
|------------------------------|
|--2---0---5-5--7-9-9-9-9-9-9--|
|----2---0---------------------|


|-------------------------|
|-------------------------|
|--2-2-2-0-0-0-0----------|
|----------------2-2-2-2--|


|-----------------------------------------|
|-----------------------------------------|
|-----------------------------------------|
|--3-3-3-3-3-3-3-3-3-2-3-3-3-3-3-3-3-3-2--|

[ Tab from: http://www.guitartabs.cc/tabs/t/travis/1_btab.html ]
|---------------------------------------|
|----------------------------4-4-4-4-4--|
|---------------------------------------|
|--3-3-3-3-3-3-3-3-2-2-2-2-2------------|


|-------------------|
|-------------------|
|--2---0---2---2----|
|----2---0---2---2--|


|-------------------|
|-------------------|
|--2---0---2---2----|
|----2---0---2---2--|


|-------------------|
|-------------------|
|--2---0---2---2----|
|----2---0---2---2--|


|-------------------|
|-------------------|
|--2---0---2---2----|
|----2---0---2---2--|


|-------------------|
|-------------------|
|--2---0---2---2----|
|----2---0---2---2--|


|------------------------------|
|------------------------------|
|--2---0---5-5--7-9-9-9-9-9-9--|
|----2---0---------------------|


|-------------------------|
|-------------------------|
|--2-2-2-0-0-0-0----------|
|----------------2-2-2-2--|


|-----------------------------------------|
|-----------------------------------------|
|-----------------------------------------|
|--3-3-3-3-3-3-3-3-3-2-3-3-3-3-3-3-3-3-2--|


|-----------------------------------------|
|-----------------------------------------|
|-----------------------------------------|
|--3-3-3-3-3-3-3-3-3-2-3-3-3-3-3-3-3-3-2--|


|---------------------------------------|
|----------------------------4-4-4-4-4--|
|---------------------------------------|
|--3-3-3-3-3-3-3-3-2-2-2-2-2------------|


|-------------------|
|-------------------|
|--2---0---2---2----|
|----2---0---2---2--|


|-------------------|
|-------------------|
|--2---0---2---2----|
|----2---0---2---2--|


|-------------------|
|-------------------|
|--2---0---2---2----|
|----2---0---2---2--|


|-------------------|
|-------------------|
|--2---0-------2----|
|----------2--------|

Comments