Travers Pat - Stop And Smile Chords & Tabs

 

Stop And Smile Chords & Tabs

Travers Pat Chords & Tabs

Version: 2 Type: Tab 0 ratings
1 star 2 stars 3 stars 4 stars 5 stars
comments

Stop And Smile Tab

   
-----------------------------------------------------------
               Stop amd Smile:  Pat Travers
-----------------------------------------------------------
Tabbed by: Edo
Tuning: Standard
suttoned@earthlink.net

Riff I
e|--------------------------------------------------------|
b|--------------------------------------------------------|
g|--------------------------------------------------------|
d|------------2~----2----------------------2--------------|
a|----------------------5--4--2------------2--------------|
E|----3--4-------------------------2--3----0--------------|

Riff II	x2
e|--------------------------------------------------------|
b|--------------------------------------------------------|
g|----------------2-------------2~------------------------|
d|----------------2--------------------------2---------2--|
a|---2------------0-----4--p0--------0---4---2---0--4-----|
E|---0----3--4-------------------------------0------------|

Verse I         I'll know it when I find it
e|--------------------------------------------------------|
b|--------------------------------------------------------|
g|----------------2---------------------------------------|
d|----------------2-------------------2-------------------|
a|----------------0-------------------2-------------------|
E|----0---3--4------------------------0-------------------|

   the thing I'm looking for
e|--------------------------------------7-----------------|
b|---------------------------------8(9)----8-p7-----------|
g|---2--------------------------------------------9-------|
d|---2--------------------2-------------------------------|
a|---0--------------------2-------------------------------|
E|------------------------0-------------------------------|

    aint no use in complaining
e|------------------------------------12--p10--10(12)--12-|
b|--------------------------------12----------------------|
g|---2----------------------------------------------------|
d|---2--------------------2-------------------------------|
a|---0--------------------2-------------------------------|
E|------------------------0-------------------------------|

   could be right at my door, ya
e|--------------------------------------------------------|
b|--------------------------------------------------------|
g|---2----------------------------------------------------|
d|---2--------------------2-------------------------------|
a|---0--------------------2-------------------------------|
E|------------------------0-------------------------------|
Riff II  x2

Chorus:  I'd just stop      and I'd smile
e|------------------2-------------------------------------|
b|------------------3-------------------------------------|
g|------------------2--------------2----------------------|
d|------------------0--------------2----------------------|
a|-------0----4--------------------0----------------------|
E|--------------------------------------------------------|

   and I'd try it  again  (repeat)
e|--------------------------------------------------------|
b|--------------------------------------------------------|
g|-----4--------------------------------------------------|
d|-----5--------------2-----------------------------2-----|
a|-----5--------------2---------------------4---p0--------|
E|-----3--------------0----------------0------------------|

Riff I

Verse with the following licks
e|--------------------------------------------------------|
b|----12--h14--14--p12------------------------------------|
g|--------------------------------------------------------|
d|--------------------------------------------------------|
a|--------------------------------------------------------|
E|--------------------------------------------------------|
[ Tab from: http://www.guitartabs.cc/tabs/t/travers_pat/stop_and_smile_tab_ver_2.html ]
e|-----12-------------------------------------------------|
b|----------14--p12---------------------------------------|
g|-------------------13---p11---/9------------------------|
d|--------------------------------------------------------|
a|--------------------------------------------------------|
E|--------------------------------------------------------|


e|--------------------------------------------------------|
b|--------------------------------------------------------|
g|----11(12)--11(12)--11-p9--11--9------------------------|
d|--------------------------------------------------------|
a|--------------------------------------------------------|
E|--------------------------------------------------------|

Chorus
Riff  I

Bridge
e|--------------------------------------------------------|
b|--------------------------------------------------------|
g|----------------2------------2-------------4------------|
d|----------------2--------------------------5------------|
a|----------------0----4---0--------0---4----5------------|
E|----0---3--4-------------------------------3------------|

                                  Bass lead
e|--------------------------------------------------------|
b|--------------------------------------------------------|
g|------6------------------8------------------------------|
d|------7------------------9------------------------------|
a|------7------------------9------------------------------|
E|------5------------------7------------------------------|

Main lead 2 min, 1 sec.
(only first part, its really meant as a jam)
e|--------------------------------------------------------|
b|---12---12--p10--------15(17)---------------------------|
g|-----------------12-------------------------------------|
d|--------------------------------------------------------|
a|--------------------------------------------------------|
E|--------------------------------------------------------|

e|--------------------------------------------------------|
b|----15--p12-------------15(17)---15(17)-----------------|
g|--------------14-p12------------------------------------|
d|--------------------------------------------------------|
a|--------------------------------------------------------|
E|--------------------------------------------------------|

e|--------------------------------------------------------|
b|----17--p15------15-------------------------------------|
g|-------------16-----16---p14---12--14--12-----12--------|
d|-------------------------------------------14-----14--12|
a|--------------------------------------------------------|
E|--------------------------------------------------------|

e|--------------------------------------------------------|
b|--------------------------------------------------------|
g|--------------------------------------------------------|
d|----14---12--------12-----------------------------------|
a|--------------14--------14--13--12--------------12------|
E|------------------------------------15--12--15-----15---|
  etc. just jamming in Em

Chorus
Riff I
Verse 
Chorus

Ending
e|--------------------------------------------------------|
b|------------5---5---------------------------------------|
g|--------------------7--6--4-----------------------------|
d|---5---6----------------------5--6-----2---2------------|
a|--------------------------------------------------------|
E|--------------------------------------------------------|



e|--------------------------------------------------------|
b|--------------------------------------------------------|
g|--------------------------9--------12---p9--------9-----|
d|------------------------------12-------------12---------|
a|---5---4---2--------------------------------------------|
E|----------------3---4-----------------------------------|

e|--------------------------------------------------------|
b|--------------------------------------------------------|
g|--------------------------------------------------------|
d|----5---6-----2-----------------------------------------|
a|--------------2-----------------------------------------|
E|--------------0-----------------------------------------|


| /  slide up
|   slide down
| h  hammer-on
| p  pull-off
| ~  vibrato
| +  harmonic
| x  Mute note
=======================================================================
Comments