Travers Pat - My Life Is On The Line Chords & Tabs

 

My Life Is On The Line Chords & Tabs

Travers Pat Chords & Tabs

Version: 1 Type: Tab 0 ratings
1 star 2 stars 3 stars 4 stars 5 stars
comments

My Life Is On The Line Tab

   
-----------------------------------------------------------
               Pat Travers Band - My Life is on the Line
-----------------------------------------------------------
Tabbed by: Edo
Tuning: Standard

Intro Phrase
    B5    A5   B5      
e|--------------------------------------------------------|
b|--------------------------------------------------------|
g|--4--4---2---4---4-----------------1--------------------|
d|--4--4---2---4---4-----------------2--------------------|
a|--2--2---0---2---2-----------------2--------------------|
E|---------------------5--4---2---0--0--------------------|

Intro Lead
e|--------------------------------------------------------|
b|--------------------------------------------------------|
g|-----------------------------------------4-4---4-------4|
d|------------------------------------4-h6---------6--4---|
a|--------------------------------------------------------|
E|--------------------------------------------------------|

e|--------------------------------------------------------|
b|--9-9-9--p7---------------------------------------------|
g|--------------8---6--s4---6--p4--------4----------------|
d|----------------------------------6---------------------|
a|--------------------------------------------------------|
E|--------------------------------------------------------|

Lick I   
Well you laughed instead of crying, pretend to feel real good but.. 

     B7sus4								           repeat
e|--------------------------------------------------------|
b|--------------------------------------------------------|
g|---4--4--4--4--4----4-------------1----2--2---3---------|
d|---4--4--4--4--4----4-------------2----2--2---3---------|
a|----------------------------------2----0--0---1---------|
E|----------------------5-4-2---0---0---------------------|

e|--------------------------------------------------------|
b|--------------------------------------------------------|
g|---4--4--4--4--4----4-------------1----3----------------|
d|---4--4--4--4--4----4-------------2----4----------------|
a|----------------------------------2----4----------------|
E|-----------------------5-4-2---0--0----2----------------|


Lick II 
    B5    A5                 D5           G
e|--------------------------------------------------------|
b|--------------------------------------------------------|
g|---4--4--2--4---------------7------------4--------------|
d|---4--4--2--4---------------7------------5--------------|
a|---2--2--0--2---------------5------------5--------------|
E|-----------------------------------------3--------------|

								   A	
e|--------------------------------------------------------|
b|--------------------------------------------------------|
g|---4--4--2--4---------------4------------6--------------|
d|---4--4--2--4---------------5------------7--------------|
a|---2--2--0--2---------------5------------7--------------|
E|----------------------------3------------5--------------|

Verse II
Whne they handed out instruction to this life...
e|--------------------------------------------------------|
b|--------------------------------------------------------|
g|---4--4--2--4---------------7------------4--------------|
d|---4--4--2--4---------------7------------5--------------|
a|---2--2--0--2---------------5------------5--------------|
E|-----------------------------------------3--------------|

					F#
e|------------------------13-13(14)13-13(14)-13-13(14)----|
b|--------------------------------------------------------|
g|---4--4--2--4-----------3-------------------------------|
d|---4--4--2--4-----------4-------------------------------|
a|---2--2--0--2-----------4-------------------------------|
E|------------------------2-------------------------------|


Chorus
   Now my life is on the line I might need some help to..
e|--------------------------------------------------------|
b|--------------------------------------------------------|
g|---4--4--4--4--4----4-------------1----2--2---3---------|
d|---4--4--4--4--4----4-------------2----2--2---3---------|
a|----------------------------------2----0--0---1---------|
E|----------------------5-4-2---0---0---------------------|







     Running out of time..							           
e|--------------------------------------------------------|
b|--------------------------------------------------------|
g|---4--4--4--4--4----4-------------1----2--2---3---------|
d|---4--4--4--4--4----4-------------2----2--2---3---------|
a|----------------------------------2----0--0---1---------|
E|----------------------5-4-2---0---0---------------------|
 |                                                        |
e|--------------------------------------------------------|
b|--------------------------------------------------------|
g|-------------------------------9(11)--9(11)--9--7--9(11)|
d|--------------------------------------------------------|
a|--------------------------------------------------------|
E|--------------------------------------------------------|

    Somebody lied...
e|--------------------------------------------------------|
b|--------------------------------------------------------|
g|---4--4--4--4--4----4-------------1----2--2---3---------|
d|---4--4--4--4--4----4-------------2----2--2---3---------|
a|----------------------------------2----0--0---1---------|
E|----------------------5-4-2---0---0---------------------|
 |                                                        |
e|--------------------------------------------------------|
b|--------------------------------------------------------|
g|----------------------------9(11)--9(11)--9--7--9(11)--9|
d|--------------------------------------------------------|
a|--------------------------------------------------------|
E|--------------------------------------------------------|
e|--------------------------------------------------------|


e|--------------------------------------------------------|
b|--------------------------------------------------------|
g|---4--4--4--4--4----4-------------1----3----------------|
d|---4--4--4--4--4----4-------------2----4----------------|
a|----------------------------------2----4----------------|
E|-----------------------5-4-2---0--0----2----------------|


1st lead over Lick II
e|--------------------------------------------------------|
b|--------------------------------------------------------|
g|------------------16~-14-h16-p14------------------------|
d|--16~--14-h16-p14----------------14-h16-p14-12-h14-p12--|
a|--------------------------------------------------------|
E|--------------------------------------------------------|

e|--------------------------------------------------------|
b|--------------------------------------------------------|
g|----------------------------------14-14-14----13-13-13--|
d|---------------12--------12---16-----------16-----------|
a|--12~--12-h14-----12-h14--------------------------------|
E|--------------------------------------------------------|
[ Tab from: http://www.guitartabs.cc/tabs/t/travers_pat/my_life_is_on_the_line_tab.html ]
e|--------------------------------------------------------|
b|-------------------------b15(17)-15-b15(17)-15-p12------|
g|--\11---13-p11-13-p11--------------------------------14-|
d|--------------------------------------------------------|
a|--------------------------------------------------------|
E|--------------------------------------------------------|

e|--------------------------------------------------------|
b|--12-h15-12---------------------------------------------|
g|------------14\-----------------------------------------|
d|--------------------------------------------------------|
a|--------------------------------------------------------|
E|--------------------------------------------------------|

You do the best that you can
e|--------------------------------------------------------|
b|--------------------------------------------------------|
g|---4--4--2--4---------------7------------4--------------|
d|---4--4--2--4---------------7------------5--------------|
a|---2--2--0--2---------------5------------5--------------|
E|-----------------------------------------3--------------|


But there's no guarantee
e|--------------------------------------------------------|
b|---------------------14--14-14--14-14--14--b17(19)------|
g|---4--4--2--4--------3----------------------------------|
d|---4--4--2--4--------4----------------------------------|
a|---2--2--0--2--------4----------------------------------|
E|---------------------2----------------------------------|

Chorus

Bridge x3 (muted)
e|--------------------------------------------------------|
b|--------------------------------------------------------|
g|----------------------------------------------2---------|
d|------2-2-2--2-2-2-2--1-1-1-1-1-1-1-1-----4------4------|
a|--------------------------------------------------------|
E|---2-----------------------------------2----------------|

e|--------------------------------------------------------|
b|--------------------------------------------------------|
g|--------------------------------------------------------|
d|---2----------------------------------------------------|
a|------4-3-2---------------------------------------------|
E|-------------5--2--p0-----------------------------------|

Last Bridge phrase
e|--------------------------------------------------------|
b|--------------------------------------------------------|
g|--------------------------------------------------------|
d|------2-2-2--1-1-1----------------------2---------------|
a|--------------------4-4-4--2-p0---------2---------------|
E|---2-----------------------------2-p0---0---------------|

2nd lead
e|--------------------------------------------------------|
b|--------------------------------------------------------|
g|----16(16.5)-p14----------------------------------------|
d|------------------16~-----14--16-16-16--14-16-16-16-14--|
a|----------------------16--------------------------------|
E|--------------------------------------------------------|

e|--------------------14-14-------------------------------|
b|--------------------14-14-------19-19-19-19-------------|
g|--14(16)------14----------------18-18-18-18-------------|
d|----------16--------------------------------------------|
a|--------------------------------------------------------|
E|--------------------------------------------------------|


e|----14---14-14----17---14-----------------------------17|
b|-14-14---14-14----17---14---17-17-16-14-16-/14-17(19)---|
g|----------------------------------------16-/14----------|
d|--------------------------------------------------------|
a|--------------------------------------------------------|
E|--------------------------------------------------------|

e|-14----14-----------------------------------------------|
b|----17--------------------------------------------------|
g|--------------------------------------------------------|
d|----------14--14-14-14-13--13-13--11-11--------16-16-14-|
a|----------------------------------------14-p12----------|
E|--------------------------------------------------------|



e|--------------------------------------------------------|
b|--------------------------------------------------------|
g|-------18---------2--4(5)-4-2-4-p2----2-----------------|
d|--16-------19-----------------------4---4-2-4-p2--------|
a|--------------------------------------------------2-----|
E|--------------------------------------------------------|

e|--------------------------------------------------------|
b|--------------------------------------------------------|
g|--------------1-----------------------------------------|
d|--2-----------2-----------------------------------------|
a|----4-3-2-p0--2-----------------------------------------|
E|--------------0-----------------------------------------|

Chorus with the follwing two leads over the 2nd and 3rd 
phrase
e|--------------------------------------------------------|
b|--------------------------------------------------------|
g|---9(11)--9(11)--9--7--9(11)----------------------------|
d|--------------------------------------------------------|
a|--------------------------------------------------------|
E|--------------------------------------------------------|

e|--------------------------------------------------------|
b|--------------------------------------------------------|
g|---17(19)--17-p15---17(19)--17~-------------------------|
d|--------------------------------------------------------|
a|--------------------------------------------------------|
E|--------------------------------------------------------|

Outro lead over chorus rhythm
e|--------------------------------------------------------|
b|--------------------------------------------------------|
g|---18-18--16~---16~------------18(20)---18--16----------|
d|-----------------------16--18---------------------------|
a|--------------------------------------------------------|
E|--------------------------------------------------------|

e|--16---19--p16------------------------------------------|
b|----------------19---p16--------------------------------|
g|--------------------------18~-----16---16(18)--16-------|
d|------------------------------18-------------------18---|
a|--------------------------------------------------------|
E|--------------------------------------------------------|




e|--------------------------------------------------------|
b|---4--------4--------4---------4------------------------|
g|------6--4-----6--4------6--4---------------------------|
d|--------------------------------------------------------|
a|--------------------------------------------------------|
E|--------------------------------------------------------|
						    add lib for 2 phrases
e|--------------------------------------------------------|
b|---4--4-------7---7(9)---7(9)---------------------------|
g|--------------------------------------------------------|
d|--------------------------------------------------------|
a|--------------------------------------------------------|
E|--------------------------------------------------------|

and end with 
e|--------------------------------------------------------|
b|--------------------------------------------------------|
g|--4--4---2---4------------------------------------------|
d|--4--4---2---4------------------------------------------|
a|--2--2---0---2------------------------------------------|
E|--------------------------------------------------------|


| /  slide up
| \  slide down
| h  hammer-on
| p  pull-off
| ~  vibrato
| +  harmonic
| x  Mute note
| 9(11) Means bend the 9th fret up to the 11th fret
===========================================================
===========================================================


Comments