Traveling Wilburys - Poor House Chords & Tabs

 

Poor House Chords & Tabs

Traveling Wilburys Chords & Tabs

Version: 1 Type: Tab 0 ratings
1 star 2 stars 3 stars 4 stars 5 stars
comments

Poor House Tab

             Poor House
          Traveling Wilburys
Bob Dylan
Tom Petty
George Harrison
Jeff Lynne
Roy Orbisson



--3--5--8--5------------3--5--8--5------------
-------------3--5--8--5-------------3---------
---------------------------------------2--2---
----------------------------------------------
----------------------------------------------
----------------------------------------------
[ Tab from: http://www.guitartabs.cc/tabs/t/traveling_wilburys/poor_house_tab.html ]
--3--5--8--5/12--10--8--12--3--5--8--12--10--5
----------------------------------------------
----------------------------------------------
----------------------------------------------
----------------------------------------------
----------------------------------------------

--5/12--10--5--5------------------------------
----------------------------------------------
----------------------------------------------
----------------------------------------------
----------------------------------------------
----------------------------------------------

Can be played with or without a slide, meant for a slide but doesn't matter.
I will try to tab out some more Traveling Wiburys tabs.


Joe Kaf
Comments