Travail - And So I Was Thinking Chords & Tabs

 

And So I Was Thinking Chords & Tabs

Travail Chords & Tabs

Version: 1 Type: Tab 0 ratings
1 star 2 stars 3 stars 4 stars 5 stars
comments

And So I Was Thinking Tab

Song: And so I was thinking....
Artist:  Travail

Tuning:
Dropped A on seven string guitar

E--------------------------------------------------------------------|
B--------------------------------------------------------------------|
G--------------------------------------------------------------------|
D---9-9-9----9-9-9----9-9-9---9-9-9---9-9-9---9-9-9---9-9-9---9/10-10| Repeat 5X
A---8-8-8----8-8-8----8-8-8---8-8-8---8-8-8---8-8-8---8-8-8---8/9--9-|
E---7-7-7----7-7-7----7-7-7---7-7-7---7-7-7---7-7-7---7-7-7---7/8--8-|
A--------------------------------------------------------------------|
  what does all of this mean.......


E-----------------------------------------------------------------------|
B-----------------------------------------------------------------------|
G-----------------------------------------------------------------------| Repeat 4X
D---9---9--9--9----9---9--9--9/10-10----9---9--9--9----9---9--9--9/10-10|
A---8---8--8--8----8---8--8--8/9--9-----8---8--8--8----8---8--8--8/9--9-|
E---7---7--7--7----7---7--7--7/8--8-----7---7--7--7----7---7--7--7/8--8-|
A-----------------------------------------------------------------------|
There's a dead cat in a box......


E------------------------------------------|--------------------------------|-------------
B------------------------------------------|--------------------------------|-------------
G------------------------------------------|--------------------------------|-------------
D------------------------------------------|--------------------------------|-------------
A---5-5-5-5--4---5-5-5-5--4---5-5-5-5--4---|5-5-5-5-4-----------------------|-------------
E---5-5-5-5--4---5-5-5-5--4---5-5-5-5--4---|5-5-5-5-4-----------------------|-4X----------
A---5-5-5-5--4---5-5-5-5--4---5-5-5-5--4---|5-5-5-5-4----2--0--5-0--2-0--5-0|-------------
in a world that has no meaning.....

[ Tab from: http://www.guitartabs.cc/tabs/t/travail/and_so_i_was_thinking_tab.html ]
E-----------------------------------------------------------------------------------------
B-----------------------------------------------------------------------------------------
G-----------------------------------------------------------------------------------------
D-----------------------------------------------------------------------------------------
A---|2---0--5--0--2--0--5--0-2-0-5-0|------|-------------------------------|--------------
E---|2---0--5--0--2--0--5--0-2-0-5-0|-8X---|-------------------------------|--------------
A---|2---0--5--0--2--0--5--0-2-0-5-0|------|6-4-3-4-3----5-3-2-3-2----4-2-1|--2X----------
durer and shagall......             Grip you fast........


E-----------------------------------------------------------------------------------------
B-----------------------------------------------------------------------------------------
G-----------------------------------------------------------------------------------------
D-----------------------------------------------------------------------------------------
A---|2-2-2---2-2-2---2-2-2---2-2-2|------------0-0--0-----0-0------0-0------0---|0-0-0----
E---|2-2-2---2-2-2---2-2-2---2-2-2|-4X---------0-0--0-----0-0------0-0------0---|0-0-0----
A---|2-2-2---2-2-2---2-2-2---2-2-2|---------12\0-0--0--12\0-0---12\0-0---12\0---|0-0-0----
p.m. * * *   * * *   * * *   * * *         I'm still trying to figure you out.....
How pitiful I am.......

E-------------------------------------------------------|
B-------------------------------------------------------|
G-------------------------------------------------------|
D-------------------------------------------------------|
A--0-0-0---0-0-0-----|-------0-0-0----0-0-0---0-0-0----0|
E--0-0-0---0-0-0-----|-3X----0-0-0----0-0-0---0-0-0----0|
A--0-0-0---0-0-0--12\|-------0-0-0----0-0-0---0-0-0----0|



/ - slide up
\ - slide down
p.m. - palm mute

If you don't have a seven string guitar....you can either tune down or just read the tab without the bottom A string.
It still sounds the same.  
Comments