Trapt - When All Is Said And Done Chords & Tabs

 

When All Is Said And Done Chords & Tabs

Trapt Chords & Tabs

Version: 3 Type: Tab 0 ratings
1 star 2 stars 3 stars 4 stars 5 stars
comments

When All Is Said And Done Tab

   
-------------------------------------------------------------------------------
		      When All Is Said and Done- Trapt
-------------------------------------------------------------------------------

Tabbed by:Brian Schenk
Email:Dawg2408

Tuning:Drop Db Ab Db Gb Bb eb

This tab is 90% correct-Listen to song for strumming patterns

Intro:

eb|---------------------------------------------------------------------------
Bb|---------------------------------------------------------------------------
Gb|---------------------------------------------------------------------------
Db|-13-13-13-13--9-9-9-x-9-9-9-x-9-7h9\6-6-6-x-6-6-6-x-6-4h6------------------
Ab|-11-11-11-11--7-7-7-x-7-7-7-x-7-7h9\4-4-4-x-4-4-4-x-4-4h6--Repeat 2x-------
Db|-11-11-11-11--7-7-7-x-7-7-7-x-7-7h9\4-4-4-x-4-4-4-x-4-4h6------------------

Verse: same as above

Chorus 1: " So why am I Waiting....."

eb|---------------------------------------------------------------------------
Bb|---------------------------------------------------------------------------
Gb|---------------------------------------------------------------------------
Db|-12-12/13\8-8-8------------------------------------------------------------
Ab|-10-10/13\6-6-6------------------------------------------------------------
Db|-10-10/13\6-6-6------------------------------------------------------------

Chorus 2: " How will this be...."

eb|---------------------------------------------------------------------------
Bb|---------------------------------------------------------------------------
Gb|-------------------------8-x-8---------------------------------------------
Db|-12-x-12/-13-x-13\-8-x-6-6-x-6---------------------------------------------
Ab|-10-x-10/-13-x-13\-6-x-6-6-x-6---------------------------------------------
Db|-10-x-10/-13-x-13\-6-x-6---------------------------------------------------
[ Tab from: http://www.guitartabs.cc/tabs/t/trapt/when_all_is_said_and_done_tab_ver_3.html ]
Clean Part 1:

eb|---------------------------------------------------------------------------
Bb|---------------------------------------------------------------------------
Gb|----------------14-14------------------------------------------------------
Db|-----------12-12-----------------------------------------------------------
Ab|------12-12----------------------------------------------------------------
Db|-10-10---------------------------------------------------------------------
  Pm..................

Clean Part 2:

eb|---------------------------------------------------------------------------
Bb|---------------------------------------------------------------------------
Gb|---------------------------------------------------------------------------
Db|---10-13---10-13---8-10---8-10---------------------------------------------
Ab|-10------10-------8------8-------------------------------------------------
Db|---------------------------------------------------------------------------
  Pm.............................

Outro:

eb|---------------------------------------------------------------------------
Bb|---------------------------------------------------------------------------
Gb|---------------------------------------------------------------------------
Db|-7-7-7-7-7-7-7-7/-8R-------------------------------------------------------
Ab|-5-5-5-5-5-5-5-5/-6R-------------------------------------------------------
Db|-5-5-5-5-5-5-5-5/-6R-------------------------------------------------------

| /  slide up
| \  slide down
| h  hammer-on
| R  let note ring
| x  mute note

Order

Intro        1x
Verse        1x
Chorus 1     1x
Chorus 2     1x
Clean Part 1 1x
Intro Riff   2x
Verse        2x
Chorus1      2x
Chorus 2     2x
Clean Part2  1x       
Intro Riff   3x
Chorus1      3x
Chorus2      3x
Outro        1x
===============================================================================
Comments