Trapt - When All Is Said And Done Chords & Tabs

 

When All Is Said And Done Chords & Tabs

Trapt Chords & Tabs

Version: 2 Type: Tab 0 ratings
1 star 2 stars 3 stars 4 stars 5 stars
comments

When All Is Said And Done Tab

Trapt
When All Is Said and Done
Trapt
Tuning: Drop D and a 1/2 step down, (Drop d flat)
tabbed by: Rob Walden

Intro
--------------------------------------------
--------------------------------------------
--------------------------------------------
-13-13-13-13-9-9-9/9-6-6-6/6-9-9-9/9-6-6-6/6
-11-11-11-11-7-7-7/9-4-4-4/6-7-7-7/9-4-4-4/6
-11-11-11-11-7-7-7/9-4-4-4/6-7-7-7/9-4-4-4/6

Verse-same as above but repeated as needed (listen to song)

Prechorus<---sorry i do not know it

Chorus "where will you be..."
-------------------
-------------------
-------------------
-12-12-13-13-8-8-6-
-10-10-13-13-6-6-6-
-10-10-13-13-6-6-6-
[ Tab from: http://www.guitartabs.cc/tabs/t/trapt/when_all_is_said_and_done_tab_ver_2.html ]
Afterchorus riff
------------------------
------------------------
-------------------13-13
-------------12-12------
-------12-12------------
-10-10------------------

Bridge "These thoughts trickle down..."
---------------------------------
---------------------------------
---------------------------------
----10-12----10-12---8-10---8-10-
-10-------10-------8------8------
---------------------------------

Outro
--------------
--------------
--------------
-5-5-5-5-5-5-5
-3-3-3-3-3-3-3
-3-3-3-3-3-3-3<---let last note ring

Song Order
Intro X1
Verse X2
ChorusX2
Afterchorus riffX2
Verse X2
ChorusX4
BridgeX7
ChorusX4
Outro X1

Thats it except for the prechorus, ill put it in the correction box when i figure
it out. until then leave praise/hatemail up in the correction box or just IM me
at kornfellow91.thanks and enjoy.
Comments