Trapt - When All Is Said And Done Chords & Tabs

 

When All Is Said And Done Chords & Tabs

Trapt Chords & Tabs

Version: 1 Type: Tab 0 ratings
1 star 2 stars 3 stars 4 stars 5 stars
comments

When All Is Said And Done Tab

   
This is an easier and more accurate version of "when all is said and done."
dominant song. 

tabbed by: aaron eisenberg
email: bluesfan62@yahoo.com

**Tuning** Dropped D
e
B
G
D
A
D


Intro:

-----------------------------------
-----------------------------------
-6---------------------------------
-x--x4--5-7-2-4--------------------
-2------5-7-2-4--------------------
--------5-7-2-4--------------------
        (strumming pattern not shown)

Verse:

Essentially the same stuff. First half of the verse wait til after the 
bass to start the 
---
---
-6-
-x-
-2-
---
[ Tab from: http://www.guitartabs.cc/tabs/t/trapt/when_all_is_said_and_done_tab.html ]
Prechorus:
---------------------------
---------------------------
-4--2----------------------
-4--2-5--------------------
-2--0-5--------------------
------5--------------------

Chorus:
----------------------------
----------------------------
-4-7------------------------
-4-7-5-2--------------------
-2-5-5-2--------------------
-----5-2--------------------
Isnt it easy? Aren't you loving it?

Bridge 1 (1:07)

----------10----------
-------10---10--------
-----9---9------------
--9-9-9---------------  x2
----------------------
----------------------

Bridge 2 (2:28)

---------------------------------
---2--2-----------2--2-----------
-----------------------------6---
--4--4----7--7---4--4----7----7-- play this a few times before it breaks 
-2--2----5--5---2--2----5---5---- back into 
--------5--5-----------5---5-----

--------
-6------
-x--x4--
-2------
--------

and then to the prechorus and so on and so forth. 
Comments