Trapt - Stories Acoustic Chords & Tabs

 

Stories Acoustic Chords & Tabs

Trapt Chords & Tabs

Version: 1 Type: Tab 0 ratings
1 star 2 stars 3 stars 4 stars 5 stars
comments

Stories Acoustic Tab

Intro/Verses
                                   played over last by guitar 2                      
|---------------------------------|-----------------------|
|---------------------------------|-----------------------|
|4-4-4-4-4-4-4-4/6-6/8-8-8-8-8-8-8|----------11-9-8-9-8-4-|
|x-x-x-x-x-x-x-x/x-x/x-x-x-x-x-x-x|-----------------------|
|2-2-2-2-2-2-2-2/4-4/6-6-6-6-6-6-6|-----------------------|
|---------------------------------|-----------------------|

 
Chorus
 
|-----------------|---------------------|-----------------|---------|
|-----------------|---------------------|-----------------|---------|
|-4-4-4-4-4-4-4-4-|-11-11-11-11-6-6-6-6-|-4-4-4-4-4-4-4-4-|-4-4-6-6-|
|-x-x-x-x-4-4-4-4-|-11-11-11-11-6-6-6-6-|-x-x-x-x-4-4-4-4-|-4-4-6-6-|
|-2-2-2-2-2-2-2-2-|--9--9--9--9-4-4-4-4-|-2-2-2-2-2-2-2-2-|-2-2-4-4-|
|-----------------|---------------------|-----------------|---------|
 

                                                                          
|-----------------|---------------------|-----------------|---------|
|-----------------|---------------------|-----------------|---------|
|-4-4-4-4-4-4-4-4-|-11-11-11-11-6-6-6-6-|-4-4-4-4-4-4-4-4-|-4-4-6-6-|
|-x-x-x-x-4-4-4-4-|-11-11-11-11-6-6-6-6-|-x-x-x-x-4-4-4-4-|-4-4-6-6-|
|-2-2-2-2-2-2-2-2-|--9--9--9--9-4-4-4-4-|-2-2-2-2-2-2-2-2-|-2-2-4-4-|
|-----------------|---------------------|-----------------|---------|

|-------------------|-----------------------------|
|-------------------|-----------------------------|
|-----------------4-|--------------------------4--|
|----------------4--|--------------------------4--|
|-7---6---4-----2---|--7-------6-------4-------2--|
|---0---0---0--2----|------0-------0-------0---2--|
  
Bridge 
 
Guitar one
|-7------7-11-12---12-12-11-9--7-|-7-9-12h14p12-11-9h11h12-7-|
|--------------------------------|---------------------------|
|--------------------------------|---------------------------|
|--------------------------------|---------------------------|
|--------------------------------|---------------------------|
|--------------------------------|---------------------------|
 
|-7-11-12---12-12-11-9--7-|-7-9-11-14-7-14-7-|
|-------------------------|------------------|
|-------------------------|------------------| 
|-------------------------|------------------|
|-------------------------|------------------|
|-------------------------|------------------|
 
Guitar two
[ Tab from: http://www.guitartabs.cc/tabs/t/trapt/stories_acoustic_tab.html ]
|-------------------------|----------------------------------|  
|-------------------------|----------------------------------|
|-11-11-11-11-11-11-11-11-|-9--9--9--9--4--4--4--4-------4-4-|
|-11-11-11-11-11-11-11-11-|-9--9--9--9--x--x--x--x-------4-4-|
|--9--9--9--9--9--9--9--9-|-7--7--7--7--2--2--2--2-------2-2-|
|-------------------------|----------------------------------|

 

 
|-----------------|-----------------|-----------------|---------|
|-----------------|-----------------|-----------------|---------|
|-4-4-4-4-4-4-4-4-|-4-4-4-4-4-4-4-4-|-9-9-9-9-9-9-9-9-|-4-4-4-4-|
|-4-4-4-4-4-4-4-4-|-x-x-x-x-x-x-x-x-|-9-9-9-9-9-9-9-9-|-4-4-4-4-|
|-2-2-2-2-2-2-2-2-|-2-2-2-2-2-2-2-2-|-7-7-7-7-7-7-7-7-|-2-2-2-2-|
|-----------------|-----------------|-----------------|---------|


Solo
guitar one
|-14-14-----12-19-12-11----11-9-7-9-7-7----7-9-7-11-7-9-7-----7-|
|---------------------------------------------------------------|
|---------------------------------------------------------------|
|---------------------------------------------------------------|
|---------------------------------------------------------------|
|---------------------------------------------------------------|
 
guitar two
|-----------------|---------------------| 
|-----------------|---------------------| 
|-4-4-4-4-4-4-4-4-|-11-11-11-11-6-6-6-6-| 
|-x-x-x-x-4-4-4-4-|-11-11-11-11-6-6-6-6-| 
|-2-2-2-2-2-2-2-2-|--9--9--9--9-4-4-4-4-| 
|-----------------|---------------------| 

 
Chorus
 
|-----------------|---------------------|-----------------|---------|
|-----------------|---------------------|-----------------|---------|
|-4-4-4-4-4-4-4-4-|-11-11-11-11-6-6-6-6-|-4-4-4-4-4-4-4-4-|-4-4-6-6-|
|-x-x-x-x-4-4-4-4-|-11-11-11-11-6-6-6-6-|-x-x-x-x-4-4-4-4-|-4-4-6-6-|
|-2-2-2-2-2-2-2-2-|--9--9--9--9-4-4-4-4-|-2-2-2-2-2-2-2-2-|-2-2-4-4-|
|-----------------|---------------------|-----------------|---------|
 

                                                                          
|-----------------|---------------------|-----------------|---------
|-----------------|---------------------|-----------------|---------
|-8-8-8-8-4-4-4-4-|-11-11-11-11-6-6-6-6-|-8-8-8-8-4-4-4-4-|-4-4-6-6-
|-9-9-9-9-4-4-4-4-|-11-11-11-11-6-6-6-6-|-9-9-9-9-4-4-4-4-|-4-4-6-6-
|-6-6-6-6-2-2-2-2-|--9--9--9--9-4-4-4-4-|-6-6-6-6-2-2-2-2-|-2-2-4-4-
|-----------------|---------------------|-----------------|---------
 

|-------------------|--------------------------------------|
|-------------------|--------------------------------------|
|-----------------4-|--------------------------4----4------|
|----------------4--|--------------------------4-----4-----|
|-7---6---4-----2---|--7-------6-------4-------2-------2---|
|---0---0---0--2----|------0-------0-------0---2---------2-|
Comments