Trapt - Stand Up Chords & Tabs

 

Stand Up Chords & Tabs

Trapt Chords & Tabs

Version: 3 Type: Bass Tab

Stand Up Bass Tab

         Intro:

    G-----------------------------------------------------------------|
    D-----------------------------------------------------------------|
    A-----------------------------------------------------------------| x4
    E-----------------------------------------------------------------|
    B-2-0--2-0--2-3--2-0--2-0-0-0-0-0-0-0-----------------------------|

         Verse:

    G--------------------------------------------------------------------|
    D----------5---------------5--------------5--------------------------|
    A-------------3-------------------------------3----------------------|  x2
    E--------------------------------------------------------------------|
    B----7-------------7-------------7-----------------------------------|

         Chorus:
[ Tab from: http://www.guitartabs.cc/tabs/t/trapt/stand_up_btab_ver_3.html ]
    G-----------------------------------------------------------------|
    D-----------------------------------------------------------------|
    A-----------------------------------------------------------------| x4
    E-----------------------------------------------------------------|
    B-2-0--2-0--2-3--2-0--2-0-0-0-0-0-0-0-----------------------------|

    G-----------------------------------------------------------------|
    D-----------------------------------------------------------------|
    A-----------------------------------------------------------------| x2
    E--------3-33-3-3-3-----------------------------------------------|
    B-2-22-2------------5-55-5-0-0-0-0-0-0-0-0------------------------|

       Bridge:

    G-----------------------------------------------------------------|
    D-----------------------------------------------------------------|
    A-----------------------------------------------------------------| x6
    E-----------------------------------------------------------------|
    B-2-0--2-0--2-3--2-0--2-0-0-0-0-0-0-0-----------------------------|

      Ending:
    G-----------------------------------------------------------------|
    D-----------------------------------------------------------------|
    A-----------------------------------------------------------------|
    E--------3-33-3-3-3-----------------------------------------------|
    B-2-22-2------------5-55-5-0-0-0-0-0-0-0-0~-----------------------|