Trapt - Stand Up Chords & Tabs

 

Stand Up Chords & Tabs

Trapt Chords & Tabs

Version: 1 Type: Bass Tab 0 ratings
1 star 2 stars 3 stars 4 stars 5 stars
comments

Stand Up Bass Tab

   
Band- Trapt
Song- Stand Up

Tuning: Standard (B E A D G)

G|----------------------------||
D|----------------------------||
A|----------------------------||
E|----------------------------||
B|-3-1-3-1-3-4-3-3-1-1-1-1-1--|| x 4


G|----------------------||
D|----------------------||
A|----8------8-----8----||
E|------6--6---------6--||
B|-8-----------8--------|| x 2


G|----------------------------||
D|----------------------------||
A|----------------------------||
E|----------------------------||
B|-3-1-3-1-3-4-3-3-1-1-1-1-1--|| x 4


G|------------------------------------------------------||
D|------------------------------------------------------||
A|------------------------------------------------10----||
E|--------6-6-6----------------------6-6-6-6-8-8--------||
B|--3-3-3--------6-6-1-1-1-1---3-3-3-----------------8--||


G|-------------------------------------------------------||
D|-------------------------------------------------------||
A|-------------------------------------------------------||
E|--------6-6-6----------------------6-6-6-6-------------||
B|--3-3-3--------6-6-1-1-1-1---3-3-3----------1-1-1-1-1--||

G|----------------------||
D|----------------------||
A|----8------8-----8----||
E|------6--6---------6--||
B|-8-----------8--------|| x 2

G|----------------------------||
D|----------------------------||
A|----------------------------||
E|----------------------------||
B|-3-1-3-1-3-4-3-3-1-1-1-1-1--|| x 4
[ Tab from: http://www.guitartabs.cc/tabs/t/trapt/stand_up_btab.html ]
G|------------------------------------------------------||
D|------------------------------------------------------||
A|------------------------------------------------10----||
E|--------6-6-6----------------------6-6-6-6-8-8--------||
B|--3-3-3--------6-6-1-1-1-1---3-3-3-----------------8--||


G|-------------------------------------------------------||
D|-------------------------------------------------------||
A|-------------------------------------------------------||
E|--------6-6-6----------------------6-6-6-6-------------||
B|--3-3-3--------6-6-1-1-1-1---3-3-3----------1-1-1-1-1--||

G|----------------------------||
D|----------------------------||
A|----------------------------||
E|----------------------------||
B|-3-1-3-1-3-4-3-3-1-1-1-1-1--|| x 6

G|----------------------------||
D|----------------------------||
A|----------------------------||
E|----------------------------||
B|-3-1-3-1-3-4-3-3-1-1-1-1-1--|| x 4

On the 3rd time through, they reverse the order of the first 2 notes.

G|------------------------------------------------------||
D|------------------------------------------------------||
A|------------------------------------------------10----||
E|--------6-6-6----------------------6-6-6-6-8-8--------||
B|--3-3-3--------6-6-1-1-1-1---3-3-3-----------------8--|| x 3

G|----------------------------------------------------------||
D|----------------------------------------------------------||
A|----------------------------------------------------------||
E|--------6-6-6----------------------6-6-6-6----------------||
B|--3-3-3--------6-6-1-1-1-1---3-3-3----------1-1-1-1-1--3--||
Comments