Trapt - New Beginning Chords & Tabs

 

New Beginning Chords & Tabs

Trapt Chords & Tabs

Version: 1 Type: Bass Tab 0 ratings
1 star 2 stars 3 stars 4 stars 5 stars
comments

New Beginning Bass Tab

   
Band- Trapt
Song- New Beginning

Tuning: Standard (B E A D G)

Intro/Verse

G|---------------------||
D|---------------------||
A|---------------------|| repeat til verse ends
E|--------4-4-4-4------||
B|1-2-3-1---------1-2-3||

Chorus:
[ Tab from: http://www.guitartabs.cc/tabs/t/trapt/new_beginning_btab.html ]
G|----------------||
D|----------------||
A|----------------|| repeat til chorus ends
E|----3-----3-----3|
B|1-2---1-2---1-2-||

Bridge

G|----------------||
D|----------------||
A|----2-----2-----2| repeat til bridge ends
E|----------------||
B|1-1---1-1---1-1-||

End of song:

G|----------------||
D|----------------||
A|----------------|| repeat til song ends
E|----------------||
B|4~----4~-----4~-||

Figure out the order it's not hard.
Comments