Trapt - Made Of Glass Chords & Tabs

 

Made Of Glass Chords & Tabs

Trapt Chords & Tabs

Version: 1 Type: Tab 0 ratings
1 star 2 stars 3 stars 4 stars 5 stars
comments

Made Of Glass Tab

   
Guitar Tuned E A D G B E

Into/Verse:
E:---------------------------------
B:---------------------------------
G:----9----------------------------
D:------10---10-9---10-9------12-10
A:--0------8------8------8/10------
E:---------------------------------

Chorus:
E:--------------------------------
B:--------------------------------
G:--------------------------------
D:--------------------------------
A:--7--7-7--3--3-3--8--8-8--5--5-5
E:--5--5-5--1--1-1--6--6-6--3--3-3
[ Tab from: http://www.guitartabs.cc/tabs/t/trapt/made_of_glass_tab.html ]
E:------------------           E:--------------------
B:------------------           B:--------------------
G:------------------  X3 Then  G:-----5^---7^--------
D:------------------           D:--------------------
A:-5-5--7-7--10-9--5           A:-5-5----7-7--10-9--5
E:-3-3--5-5--8--7--3           E:-3-3----5-5--8--7--3

Interlude:
E------12---0|-------------------------------|------------------------------
B------------|-------------------------------|------------------------------
G10-10----0--|-------------------------------|-----------------------------12
D------------|--10-9---------10/12--10-9-----|----10-9---------10/12--10-9--
A------------|8------10-10~~-------------10~~|--8------10-10~~--------------
E------------|-------------------------------|------------------------------

These tabs are straight from the book so if you have any questions email
me at LiLMicHy52590@yahoo.com
Comments