Trapt - Lost Realist Chords & Tabs

 

Lost Realist Chords & Tabs

Trapt Chords & Tabs

Version: 2 Type: Tab

Lost Realist Tab

Tabbed by: NeoN
Email: neon @at@ leeth4x.com
Pretty easy song... standard tuning. You have to listen to the strum patterns
because I'm lazy and I didn't put them in there. But this is everything you
need to figure out the song. I'm sure I have mistakes in there (like the intro)
e-mail me the changes :)


Trapt - Lost Realist

Intro/Verse 
e|---------------------------------------------------------------------------|
B|---------------------------------------------------------------------------|
G|--6-6---6-6---6-6-----------6-6------6-6-----------------------------------|
D|6-----6-----6-----6-6-----6--------6---------------------------------------|
A|------------------------4--------4-----------------------------------------|
E|---------------------------------------------------------------------------|


Pre-Chorus/Solo
e|---------------------------------------------------------------------------|
B|---------------------------------------------------------------------------|
G|----10-8-6-5--------10-8-6-5-6-/8------------------------------------------|
D|8------------6-/8----------------8-----------------------------------------|
A|---------------------------------------------------------------------------|
E|---------------------------------------------------------------------------|
[ Tab from: http://www.guitartabs.cc/tabs/t/trapt/lost_realist_tab_ver_2.html ]
Chorus
e|---------------------------------------------------------------------------|
B|---------------------------------------------------------------------------|
G|-6-------------------------------------------------------------------------|
D|-6----8----6----4----8----6----4-------------------------------------------|
A|-4----8----6----4----8----6----4-------------------------------------------|
E|------6----4----2----6----4----2-------------------------------------------|
Strumming not included...


Bridge
e|---------------------------------------------------------------------------|
B|---------------------------------------------------------------------------|
G|---------------------------------------------------------------------------|
D|8-8-8-8-8-8-8-8-10-10-10-10-10-10-11-11------------------------------------|
A|---------------------------------------------------------------------------|
E|---------------------------------------------------------------------------|

e|---------------------------------------------------------------------------|
B|---------------------------------------------------------------------------|
G|---------------------------------10--7-------------------------------------|
D|8-8-8-8-8-8-8-8-10-10-10-10-10-11--11--------------------------------------|
A|---------------------------------------------------------------------------|
E|---------------------------------------------------------------------------|

e|---------------------------------------------------------------------------|
B|---------------------------------------------------------------------------|
G|--10--7--------------------------------------------------------------------|
D|11--11---------------------------------------------------------------------|
A|---------------------------------------------------------------------------|
E|---------------------------------------------------------------------------|