Trapt - Heastrong Chords & Tabs

 

Heastrong Chords & Tabs

Trapt Chords & Tabs

Version: 1 Type: Tab

Heastrong Tab

The main chord progresion is E,D,C
into
e-------------------------------------------------------
B----11-11-----11-11-------9-9-----9-9------------------
G-------------------------------------------------------
D-99--------99----------77------77------755-------------
A-77--------77----------55------55------533-------------
E-------------------------------------------------------

e-------------------------------------------------------
B----11-11-----11-11------9-9------9-9--------------------
G-------------------------------------------------------
D-99--------99----------77------77------75----------------
A-77--------77----------55------55------53----------------
E-------------------------------------------------------
 enjoy
leadguitarist@hotmail.com
[ Tab from: http://www.guitartabs.cc/tabs/t/trapt/heastrong_tab.html ]