Trapt - Headstrong Chords & Tabs

 

Headstrong Chords & Tabs

Trapt Chords & Tabs

Version: 4 Type: Tab 1 rating
1 star 2 stars 3 stars 4 stars 5 stars
comments

Headstrong Tab

Song: Headstrong                                           Key
Artist: Trapt
Album: Trapt                                               Mute: x
Tuning: Gtr. 1-BEADGBE, Gtr. 2-EADGBE, Gtr. 3-EADGBE       Let Note Ring: ~
Tabbed By: Ryan Vernon	
Email: ohio_guitar_player15@yahoo.com

This is a cool song. Guitar 1 plays distortion for the whole song and guitars 2 and 3 play clean. If you have any questions or comments, email me. 
________________________________________________________________________________

Intro
 Gtr. 1
|------------------------------------------------------------------------------|
|---------7----7----------7----7------------5----5----------5----5-------------|
|--------------------------------------------------------------------7--5--5---|
|--------------------------------------------------------------------7--5--5---|
|--------------------------------------------------------------------5--3--3---|
|---7--7------------7--7--------------5--5------------5--5-----------5--3--3---|
|---5--5------------5--5--------------3--3------------3--3---------------------|

 Gtr. 1
|--------------------------------------------------------------------------------|
|---------7----7----------7----7------------------5----5----------5----5---------|
|--------------------------------------------------------------------------------|
|--------------------------------------------------------------------------------|
|--------------------------------------------------------------------------------|
|---7--7------------7--7------------7--7----5--5------------5--5----------3--3---|
|---5--5------------5--5------------5--5----3--3------------3--3----------0--1---|

 Gtr. 1 repeats second line of intro 1x.
 Gtr. 2
|--------------------------------------7-----------------------------------------|
|------7-------7-------8-------7-------------5-5-----5-------5-----3-------3-0---|
|--------------------------------------------------------------------------------|
|--------------------------------------------------------------------------------|
|---7-----7-7-----7-7-----7-7-----7-7-----5-------5-----5-5-----3-----3-3--------|
|--------------------------------------------------------------------------------|

Verse: Gtr. 2 repeats intro riff 5x and gtrs. 1 and 2 end with these.
 Gtr. 2                                   Gtr. 1
|---0~~~~~~~~~~~~------------------------|---------------------------------------|
|---0~~~~~~~~~~~~------------------------|---------------------------------------|
|----------------------------------------|---------------------------------------|
|----------------------------------------|---------------------------------------|
|----------------------------------------|---------------------------------------|
|----------------------------------------|------------------------------7----3---|
                                         |------------------------------5----1---|

Chorus: Gtr. 1 repeats second line of the intro 4x. 

Bridge
 Gtr. 1
|--------------------------------------------------------------|
|--------------------------------------------------------------|
|---13----13----13----11----9----------------------------------|
|----x-----x-----x-----x----x----------------------------------|
|---11----11----11-----9----7--------3----3----5--------5--5---|
|----0-----0-----0-----0----0--------3----3----5--------5--5---|
|------------------------------------1----1----3--------3--3---|

|---------------------------------------------------------------------|
|---------------------------------------------------------------------|
|---13----11----14----13----9-----------------------------------------|
|----x-----x-----x-----x----x------------------5----------------------|
|---11-----9----12----11----7--------3----3----5-------------5----5---|
|----0-----0-----0-----0----0--------3----3----3-------------5----5---|
|------------------------------------1----1-------------0----3----3---|
[ Tab from: http://www.guitartabs.cc/tabs/t/trapt/headstrong_tab_ver_4.html ]
|--------------------------------------------------------------------------|
|--------------------------------------------------------------------------|
|---13----13----13----13--14----16-----------------------------------------|
|----x-----x-----x-----x---x-----x-----------------------------------------|
|---11----11----11----11--12----14--------3----3----5-------------5----5---|
|----0-----0-----0-----0---0-----0--------3----3----5-------------5----5---|
|-----------------------------------------1----1----3--------0----3----3---|

|------------------------------------------------------------------------------|
|------------------------------------------------------------------------------|
|---13----11----14----13----9--------------------------------------------------|
|----x-----x-----x-----x----x------------------5-------------------------------|
|---11-----9----12----11----7--------3----3----5--------5--5---------------7---|
|----0-----0-----0-----0----0--------3----3----3--------5--5---------------7---|
|------------------------------------1----1-------------3--3---------------5---|

Gtr. 2 plays intro riff 2x

Repeat Verse

Repeat Chorus

Repeat Bridge

Interlude
 Gtr. 2
|------14-------14-------15-------14-------0---|
|----------------------------------------------|
|---------12-------12-------12-------12--------|
|---14-------14-------14-------14-------14-----|
|----------------------------------------------|
|----------------------------------------------|
|
|Gtr. 3
|----------------------------------------------|
|----------------------------------------------|
|---12-----------------------7-----------------|
|----------------------------------------------|
|----------------------------------------------|
|------------12--------7-----------------------|

 Gtr. 2
|------12-------12-------14-------12-------0---|
|----------------------------------------------|
|---------11-------11-------11-------11--------|
|---12-------12-------12-------12-------12-----|
|----------------------------------------------|
|----------------------------------------------|
| 
|Gtr. 3
|----------------------------------------------|
|----------------------------------------------|
|----------------------------------------------|
|----------------------------------------------|
|----7----------------------12-----------------|
|------------12--------7-----------------------|

 Gtr. 3 repeats riff 2x under Gtr. 2.
 Gtr. 2
|------14-------14-------15-------17----15-15---|
|-----------------------------------------------|
|---------12-------12-------12------------------|
|---14-------14-------14-------14----14---------|
|-----------------------------------------------|
|-----------------------------------------------|

 Gtr. 2
|------12-------12-------14-------14-------14---|
|-----------------------------------------------|
|---------11-------11-------11-------11---------|
|---12-------12-------12-------12-------12------|
|-----------------------------------------------|
|-----------------------------------------------|

 Gtr. 2
|------14-------14-------15-------17----15-15---|
|-----------------------------------------------|
|---------12-------12-------12-------14---------|
|---14-------14-------14-------14---------------|
|-----------------------------------------------|
|-----------------------------------------------|

 Gtr. 2
|------12-------12-------14-------14-------14---|
|-----------------------------------------------|
|---------11-------11-------11-------11---------|
|---12-------12-------12-------12-------12------|
|-----------------------------------------------|
|-----------------------------------------------|

Repeat Chorus

Repeat Bridge

Gtr. 1 repeats second line of intro 1.5x

Gtr. 1 repeats second line of intro 1.5x
Gtr. 2 repeats first riff 1.5x

End with this
Gtr. 1
|--------------------------------------------|
|--------5----5---------5----5---------------|
|--------------------------------------------|
|--------------------------------------------|
|--------------------------------------------|
|---5--5-----------5--5-----------3—-3~~~~---|
|---3--3-----------3--3-----------0—-1~~~~---|
|
|Gtr. 2
|--------------------------------------------|
|-----5------5------5----3------3----0~~~~---|
|--------------------------------------------|
|--------------------------------------------|
|---5---5--5---5--5----3---3--3--------------|
|--------------------------------------------|
Comments