Trapt - Headstrong Chords & Tabs

 

Headstrong Chords & Tabs

Trapt Chords & Tabs

Version: 3 Type: Tab 0 ratings
1 star 2 stars 3 stars 4 stars 5 stars
comments

Headstrong Tab

Hey! Here's a good song from the 'Tears of the Sun' soundtrack!
It's pretty easy....

Tuning: Dropped D (DADGBE)

Riff 1 (Intro) 

e--------------------------------------
b------7-7----7-7------5-5---5-5-------
g--------------------------------------
d--44------44----44--22----22-----2-0--
a--44------44----44--22----22-----2-0--
d--44------44----44--22----22-----2-0--

Verses

e--------------------7------------------
b----7----7-----8-7------5----5/3-333---
g--9----9-----9--------7----7-----------
d---------------------------------------
a---------------------------------------
d---------------------------------------

Chorus (Same as Intro)

Post chorus

e|--------------------------------------------------------------------------|
b|--------------------------------------------------------------------------|
g|---15--15-15-15-15--13--11--14--14-14-9--9-9-9-6--------------------------|
d|--------------------------------------------------------------------------|
a|---13--13-13-13-13--11--9---12--12-12-7--7-7-7-4--------------------------|
d|--------------------------------------------------------------------------|
[ Tab from: http://www.guitartabs.cc/tabs/t/trapt/headstrong_tab_ver_3.html ]
e|--------------------------------------------------------------------------|
b|--------------------------------------------------------------------------|
g|---15--15-15-15-15--16--/18---14-14-9--9-9-9-6----------------------------|
d|--------------------------------------------------------------------------|
a|---13--13-13-13-13--14--/16---12—12-7--7-7-7-4----------------------------|
d|--------------------------------------------------------------------------|

Last time after chorus

e|--16-16-16-16-16h17—17p16—16p14-14-14---14-14-14-14—14h16—16p14--14-14-14-|
b|--------------------------------------------------------------------------|
g|--------------------------------------------------------------------------|
d|--------------------------------------------------------------------------|
a|--------------------------------------------------------------------------|
d|--------------------------------------------------------------------------|

Order:

Intro
Verse
Chorus (Same as intro)
Post Chorus
Verse
Chorus (same as intro)
Last time chorus (above)
Outro (Same as intro)

That's all! This song rules. Now you can play it!

Peace out!
~Anarchy2k2~
Comments