Trapt - Headstrong Chords & Tabs

 

Headstrong Chords & Tabs

Trapt Chords & Tabs

Version: 1 Type: Tab 5 ratings
1 star 2 stars 3 stars 4 stars 5 stars
comments

Headstrong Tab

 TITLE: "Headstrong" 
ARTIST: Trapt
TUNING: Drop D (EBGDAD)
TABBER: Rob Marston (rob@pawnshopcaddies.com)
 NOTES: This song rules! That's about it.


I'm going to tab this song out for two guitars, because
during the post-chorus or bridge, it sounds to me like
there is a second guitar. The verse is lead played over
bass, you can tab that part out on your own if you want your
rhythm guitar to play it instead. Combine all the riffs if you
think you can do it yourself, and make it sound good.


INTRO:

Ryhthm:
E-|------------------------------------------|
B-|------------------------------------------|
G-|------------------------------------------|
D-|---2-2-----2-2-----0-0----0-0-----3-2-0---|
A-|---2-2-----2-2-----0-0----0-0-----3-2-0---|
D-|---2-2-----2-2-----0-0----0-0-----3-2-0---|
Lead:
E-|-------2-2-----2-2-----0-0----0-0---------|
B-|------------------------------------------|
G-|------------------------------------------|
D-|------------------------------------------|
A-|------------------------------------------|
D-|------------------------------------------|

Play this part (below) twice:

Rhythm:
E-|---------------------------------------------|
B-|---------------------------------------------|
G-|---------------------------------------------|
D-|---2-2-----2-2-----2---0-0----0-0------3-2---|
A-|---2-2-----2-2-----2---0-0----0-0------3-2---|
D-|---2-2-----2-2-----2---0-0----0-0------3-2---|
Lead:
E-|-------2-2-----2-2--------0-0----0-0---------|
B-|---------------------------------------------|
G-|---------------------------------------------|
D-|---------------------------------------------|
A-|---------------------------------------------|
D-|---------------------------------------------|

VERSE:
[ Tab from: http://www.guitartabs.cc/tabs/t/trapt/headstrong_tab.html ]
I believe the lead is played with some effects, 
possibly chorus or echo.

Lead:
E-|---0-2-0-2-0-3~-0-2-7------------------------|
B-|------------------------3-5-3-5-3-5~-3-1-----|
G-|-----------------------------------------4---|
D-|---------------------------------------------|
A-|---------------------------------------------|
D-|---------------------------------------------|

CHORUS: 

Repeat.

Rhythm:
E-|---------------------------------------------|
B-|---------------------------------------------|
G-|---------------------------------------------|
D-|---2-2-----2-2-----2---0-0----0-0------3-2---|
A-|---2-2-----2-2-----2---0-0----0-0------3-2---|
D-|---2-2-----2-2-----2---0-0----0-0------3-2---|
Lead:
E-|-------2-2-----2-2--------0-0----0-0---------|
B-|---------------------------------------------|
G-|---------------------------------------------|
D-|---------------------------------------------|
A-|---------------------------------------------|
D-|---------------------------------------------|

POST CHORUS:

Lead:
E-|-------------------------------------------------------------------|
B-|---s9-9-9-9-9-7-5---s9-7-10-9---s9-9-9-9-9-10-12---s9-7-10-9-7-5---|
G-|-------------------------------------------------------------------|
D-|-------------------------------------------------------------------|
A-|-------------------------------------------------------------------|
D-|-------------------------------------------------------------------|

Use this chord combination, strum and add mutes. Listen to the song
for the exact rhythm.

Ryhthm:
E-|---------------|
B-|---------------|
G-|---------------|
D-|---2---0---3---|
A-|---2---0---3---|
D-|---2---0---3---|

OUTRO:

End on this chord:

Rhythm:
E-|-------|
B-|-------|
G-|-------|
D-|---2---|
A-|---2---|
D-|---2---|
Comments