Transplants - Weigh On My Mind Chords & Tabs

 

Weigh On My Mind Chords & Tabs

Transplants Chords & Tabs

Version: 3 Type: Tab 0 ratings
1 star 2 stars 3 stars 4 stars 5 stars
comments

Weigh On My Mind Tab

                   The Transplants -Weigh on my mind-
 
Tabbed by:Samppa
 
Tuning:Standard  

Intro:

1st guitar  

e|-7---5---3------------7---5---3-----|
B|-8---5---3------------8---5---3-----|
G|-7---5---5------------7---5---5-----|
D|------------------------------------|
A|------------------------------------|
E|------------------------------------|     

2nd guitar    
[ Tab from: http://www.guitartabs.cc/tabs/t/transplants/weigh_on_my_mind_tab_ver_3.html ]
e|-------------------------------------|
B|-------------------------------------|
G|------2/3\2-0----------------2/3\2-0-|
D|-------------------------------------|
A|-------------------------------------|
E|-------------------------------------|


Verse: Same as intro


Chorus:

e|----------------------|
B|----------------------|
G|-------------5--------|
D|--555---777--5--------|
A|--555---777--3--------|
E|--333---555-----------|

Great song!!!
Comments