Transplants - Romper Stomper Chords & Tabs

 

Romper Stomper Chords & Tabs

Transplants Chords & Tabs

Version: 1 Type: Chords 0 ratings
1 star 2 stars 3 stars 4 stars 5 stars
comments

Romper Stomper Chords

   
Transplants - Romper Stomper
Submitted By: tryntolive
EMail: tryntolive@hotmail.com

Tuning: Standard (E A D G B E)
[ Tab from: http://www.guitartabs.cc/tabs/t/transplants/romper_stomper_crd.html ]
tabed this song in a matter of seconds literaly...but ill try to find some time 
to tab more transplants tabs. i haven't seen any of tehre tabs on the net so i 
hope this is good. enjoy!
E|----------------------------------||
B|----------------------------------||
G|-4-4-4-4-4-4-4-4--2-2-2--5-5-5-5--||
D|-4-4-4-4-4-4-4-4--2-2-2--5-5-5-5--||
A|-2-2-2-2-2-2-2-2--0-0-0--3-3-3-3--||
E|----------------------------------||


E|----||
B|----||
G|-4--||
D|-4--||
A|-2--||
E|----||
just hold it for a few seconds then repeat

E|---------------||
B|--7-6-5-/15----||
G|---------------||
D|---------------||
A|---------------||
E|---------------||
Comments