Transplants - Down In Oakland Chords & Tabs

 

Down In Oakland Chords & Tabs

Transplants Chords & Tabs

Version: 1 Type: Tab 0 ratings
1 star 2 stars 3 stars 4 stars 5 stars
comments

Down In Oakland Tab

BAND : TRANSPLANTS
SONG : DOWN IN OAKLAND
TABBED BY : QUINCY SLOAN

HERE IS ANOTHER TRANSPLANTS TAB. 'SAD BUT TRUE' AND 'WE TRUSTED YOU' ON THEIR WAY. ENJOY
[ Tab from: http://www.guitartabs.cc/tabs/t/transplants/down_in_oakland_tab.html ]
MAIN PART/VERSE
E :--------------------------------------
B :--------------------------------------
G :--------------------------------------
D :--------------------------------------
A :-2-2--2--2--2-------------------------
E :---------------0---3-3-3--3--2--------

EXTRA FILL
E :----------------------------------
B :----------------------------------
G :----------------------------------
D :----------------------------------
A :-2-3-2-0--------------------------
E :----------3--2--------------------

THAT IS IT. THERE ARE SOME WEIRD SAMPLES BUT THEY ARE NOT ON GUITAR, I DON'T THINK
Comments