Transplants - Dj Dj Chords & Tabs

 

Dj Dj Chords & Tabs

Transplants Chords & Tabs

Version: 2 Type: Tab 0 ratings
1 star 2 stars 3 stars 4 stars 5 stars
comments

Dj Dj Tab

   
-------------------------------------------------------------------------------
			     Dj Dj - Transplants
-------------------------------------------------------------------------------

Tabbed by: ZeroIsGreatMan
Corrected by: Johnny Arson
Tuning: EADGBe

Transplants are:
Rob "SR" Aston - Vocals: New Guy 
Tim Armstrong - Vocals, Guitar: Rancid
Travis Barker - Drums : Blink 182

Intro/Fill/Outro: "Watch me now!"
e|--------------------------------------------|
B|--------------------------------------------|
G|-9---7-8-9----7-8-9----7-8-9\8-9\8-9\8-9\8--|(x2)
D|-9-9-7-8-9--9-7-8-9--9-7-8-9\8-9\8-9\8-9\8--|
A|-7-9-5-6-7--9-5-6-7--9-5-6-7\6-7\6-7\6-7\6--|
E|---7--------7--------7----------------------|

Verse: "Nobody move, and nobody gets hurt..."
e|------5-5--7-7--5-5-|
B|------5-5--7-7--5-5-|
G|-9-9--6-6--7-7--6-6-|
D|-9-9--7-7--9-9--7-7-|
A|-7-7--7-7--9-9--7-7-|
E|------5-5--7-7--5-5-|

Chorus:
 "We're gonna make it on our own, we don't need anyone, lord knows we don't need you, yeah"
e|---------------------------------------------------|
B|---------------------------------------------------|
G|---------------------------------------------------|
D|-11-----[11]----[11]-----9-7----[7]---[7]---[7]----|
A|-11-[11]----[11]----[11]-9-7-[7]---[7]---[7]---[7]-|
E|-9-----------------------7-5-----------------------|
[ Tab from: http://www.guitartabs.cc/tabs/t/transplants/dj_dj_tab_ver_2.html ]
e|-------------------------------------------------|
B|-------------------------------------------------|
G|-9----[9]---[9]---[9]----------------------------|
D|-9-[9]---[9]---[9]---[9]-9----[9]---[9]---[9]----|
A|-7-----------------------9-[9]---[9]---[9]---[9]-|
E|-------------------------7-----------------------|
  Note: Notes in brackets [] are optional. They 
        are played by a piano.

Solo:
e|------------------------------------------------------------------|
B|------------------------------------------------------------------|
G|------------------------------------------------------------------|
D|-2--4p2---2-----2-4b5-4b5-4b5b4-2---2--222------2-----------------|
A|--------4---2/4-------------------4---------2-4---4-2-------------|
E|------------------------------------------------------4-4-4p2-2-0-|

Solo: (Cont.)
e|-----------------------------------------------|
B|-----------------------------------------------|
G|-----------------------------------------------|
D|----------------------------------------2--4-2-|
A|-------2----------2---2-------------2h3--------|
E|-0h2/4---4-2--2/4---4---4-2-2b4-0--------------|

| b  bend 
| /  slide up
| \  slide down
| h  hammer-on
| p  pull-off
| ~  vibrato
| +  harmonic
| x  Mute note

Had to make this tab, the other one was too wrong and didn't have a solo, so here
it is, solo and all. Sorry if I didn't tell you what to play and when, but if you
hear it enough times, you will win.
===============================================================================
Comments