Transplants - Diamonds And Guns Chords & Tabs

 

Diamonds And Guns Chords & Tabs

Transplants Chords & Tabs

Version: 7 Type: Tab 0 ratings
1 star 2 stars 3 stars 4 stars 5 stars
comments

Diamonds And Guns Tab

i worked out this tab on my own cos the song rocks, if it's wrong i'm sorry- craig



Intro/Chorus

e|------------------------------|
B|------------------------------|
G|--5--5--------3--5--5--------3|
D|--5--5--5--5--3--5--5--5--5--3|
A|--3--3--5--5--1--3--3--5--5--1|
E|--------3--3-----------3--3---|
[ Tab from: http://www.guitartabs.cc/tabs/t/transplants/diamonds_and_guns_tab_ver_7.html ]
e|------------------------------|
B|------------------------------|
G|--5--5--------3--5--5--------3|
D|--5--5--5--5--3--5--5--5--5--3|
A|--3--3--5--5--1--3--3--5--5--1|
E|--------3--3-----------3--3---|


Verse

e|------------------------------|
B|------------------------------|
G|--5--5----5--5----5--5----5--5|
D|--5--5----5--5----5--5----5--5|
A|--3--3----3--3----3--3----3--3|
E|------------------------------|

hope it's ok!!!
Comments