Transplants - Diamonds And Guns Chords & Tabs

 

Diamonds And Guns Chords & Tabs

Transplants Chords & Tabs

Version: 6 Type: Tab 0 ratings
1 star 2 stars 3 stars 4 stars 5 stars
comments

Diamonds And Guns Tab

   
-------------------------------------------------------------------------------
			 Diamonds And Guns - Transplants
-------------------------------------------------------------------------------

Tabbed by: ZeroIsGreatMan
Tuning: EADGBe

Piano Part:
e|-------------------------|
B|-------------------------|
G|-------------------------|
D|------5-5-4-3--1-1-1-2-3-|
A|-1-3---------------------|
E|-------------------------|
[ Tab from: http://www.guitartabs.cc/tabs/t/transplants/diamonds_and_guns_tab_ver_6.html ]
Chorus: "Woo - Woo"
e|--------------------------|
B|--------------------------|
G|-3-/-5----5-5-------------|
D|-3-/-5----5-5--5-5----5-5-|
A|-1-/-3----3-3--5-5----5-5-|
E|---------------3-5----3-3-|

Verse:(Play this with the piano part)
e|------------|
B|------------|
G|-3-/-5--5-5-|
D|-3-/-5--5-5-|
A|-1-/-3--3-3-|
E|------------|

Pre - Chorus:
e|------------------------------------------|
B|------------------------------------------|
G|------------------------------------------|
D|-5-5-5-5-5-5-5-5-5-5--6-6-6-6-6-6-6-6-6-6-|
A|-5-5-5-5-5-5-5-5-5-5--6-6-6-6-6-6-6-6-6-6-|
E|-3-3-3-3-3-3-3-3-3-3--4-4-4-4-4-4-4-4-4-4-|



| /  slide up
| \  slide down
| h  hammer-on
| p  pull-off
| ~  vibrato
| +  harmonic
| x  Mute note

===============================================================================
Comments